Cifra Club

Aprenda

Zero e Um

Dead Fish

Tab de baixo: Principal
OBS: O que estiver entrre parênteses() são as viradas.

Intro
G]----------------------------------------
D]-------------------4*-------------------
A]-6*----------3*-5*----6*----------3*-1*-
E]----1*-2*-3*-------------1*-2*-3*-------

Verso 2X
G]-------------------
D]-------------------
A]----1*----5*-(-03)-
E]-3*----1*----(2--)-

Refrão 2X
G]------------------------------
D]------------------------------
A]-6*-(86)----(53-)-5*----------
E]---------6*-(--6)----(235)-3*-

Ponte 2X
G]-------------------------------
D]-------------------3*-33-4-*44-
A]-3*-1*-------6*-66-------------
E]-------3*-33-------------------

Outro
G]-------------------------------------------
D]-------------------------------------------
A]-------------3*-1*----6*-------------3*-1*-
E]-3*-1*-2*-3*-------2*----1*-2*-3*-1*-------

Refrão 2X

Final
G]---------------
D]---------------
A]----3*-1*-----5
E]-3*-------3*-1-

_______________________________________________________
Contribuição: André de Campos Luciano(tatubass@uol.com.br)
Composição de Dead Fish
11.548 exibições

0 comentários

Mostrar mais comentários

Conseguiu tocar?

1 Tocaram 0 Ainda não

Grave um vídeo tocando Zero e Um e mande pra gente!

00:00 / 00:00
outros vídeos desta música
repetir qualidade Automático
Outros vídeos desta música
00:00 / 00:00
Automático

Cifra Club Pro

Aproveite o Cifra Club com benefícios exclusivos e sem anúncios
Cifra Club Pro
Aproveite o Cifra Club com benefícios exclusivos e sem anúncios
OK