Cifra Club

Kill The Poor

Dead Kennedys

Cifra: Principal (violão e guitarra)
tom: D
( D  Bm  G  A )
Efficiency and progress is ours once more
Now that we have the neutron bomb
It's nice and quick and clean and gets things done
Away with excess enemy
With no less value to property
No sense in war but perfect sense at home...

( D )
The sun beams down on a brand new day
No more welfare tax to pay
Unsightly slums gone up in a flashing light
Jobless millions whisked away
At last we have more room to play
All systems go to kill the poor tonight

( D  Bm G A )
Gonna
Kill Kill Kill Kill
Kill the poor...tonight

( D )
Behold the sparkle of champagne
The crime rate's gone
Feel free again
O' life's a dream with you, Miss Lily White
Jane Fonda's on thre screen today
Convinced the liberals it's okay
So let's get dressed and dance away the night
Solo:
F|----------------------------------------------------------------------|
C|-------------13-13-12---------------11-11-10--------------------------|
A|-12-12-12-12-12-12-12---10-10-10-10-10-10-10---9-9-9-9-9-9-9-9-9-9-9--|
E|-12-12-12-12-12-12-12---10-10-10-10-10-10-10---9-9-9-9-9-9-9-9-9-9-9--|
B|-10-10-10-10-10-10-10----8--8--8--8--8--8--8---7-7-7-7-7-7-7-7-7-7-7--|
F|----------------------------------------------------------------------|

F|-------------------------              ----12-15-14-12-------|
C|-------------------------   play 6x    -12--------------10fb-|
A|-12-12-10h12-12-10h12-12-              ----------------------|
E|-------------------------   6th time   ----------------------|
B|-------------------------     add      ----------------------|
F|-------------------------              ----------------------|

F|----------------|
C|-7-7-7-7-8-8-7--|
A|-7-7-7-7-7-7-7--|
E|-7-7-7-7-7-7-7--|
B|-5-5-5-5-5-5-5--|
F|----------------|
00:00 / 00:00
Outros vídeos desta música
Repetir
Outros vídeos desta música
Composição de Dead Kennedys / Jello Biafra
Colaboração e revisão:
  • ygor
  • marcell cruz
4.665 exibições
    • ½ Tom
    • A
    • Bb
    • B
    • C
    • Db
    • D
    • Eb
    • E
    • F
    • F#
    • G
    • Ab
  • Adicionar à lista

    0 comentários

    Ver todos os comentários

    Entre para oCifra Club PRO

    Tenha acesso a benefícios exclusivos no App e no Site

    • Chega de anúncios

    • Prioridade de compra em lançamentos

    • Mais recursos no app do Afinador

    • Atendimento Prioritário

    • Descontos nos produtos Cifra Club

    • Ajude a produzir mais conteúdo

    00:00 / 00:00

    Cifra Club Pro

    Aproveite o Cifra Club com benefícios exclusivos e sem anúncios
    Cifra Club Pro
    Aproveite o Cifra Club com benefícios exclusivos e sem anúncios
    OK