Cifra Club

Resposta

Dead Nomads

Cifra: Principal
exibições 143
Tom: E
[intro]
    C#m                   A
E|---------------------|---------------------|
B|-5-5~-5-5-5-7~-5~-4~-|-5-5~-5-5-5-7~-5~-4~-|
G|-6-6~-6-6-6-6~-6~-6~-|-6-6~-6-6-6-6~-6~-6~-|
D|---------------------|---------------------|
A|---------------------|---------------------|
E|---------------------|---------------------|

    G#m                   G#
E|---------------------|---------------------|
B|---------------------|---------------------|
G|---4~-4-4-4~--4-4-4~-|---5~-5-5-5~-5-5-5~-5|
D|-6-6~-6-6-6~--6-6-6~-|-6-6~-6-6-6~-6-6-6~-5|
A|---------------------|---------------------|
E|---------------------|---------------------|

    C#m                   A
E|---------------------|---------------------|
B|-5-5~-5-5-5-7~-5~-4~-|-5-5~-5-5-5-7~-5~-4~-|
G|-6-6~-6-6-6-6~-6~-6~-|-6-6~-6-6-6-6~-6~-6~-|
D|---------------------|---------------------|
A|---------------------|---------------------|
E|---------------------|---------------------|

    G#m                   G#
E|---------------------|---------------------|
B|---------------------|-------------5~-5~-4-|
G|---4~-4-4-4~--4-4-4~-|---5~-5-5-5~-4~-4~-4-|
D|-6-6~-6-6-6~--6-6-6~-|-6-6~-6-6-6~-6~-6~-6-|
A|---------------------|---------------------|
E|---------------------|---------------------|

C#m              A                    G#m    G#
 Não preciso alterar meu estado pra fugir de algo
C#m                A                  G#m   G#
 Mas eu posso imaginar a vontade de sair do mundo
C#m               A                     G#m  G#
 Não se negue a falar, você não precisa ir embora
C#m               A                    G#m  G#
 E ao invés de acusar, prefiro te entender agora

E                G#m
Mas eu não tenho medo
              C#m                 B
De procurar e encontrar alguma resposta
E              G#m
Mesmo que seja cedo
                  C#m                  B
Ou alguém venha a atirar pelas minhas costas

A        B
Mais uma vez
G#m          C#m  B
Olha bem pra mim
A     B
E vai perceber
G#m              C#m  B
Que eu não sou assim
A      B
E você vai saber
G#m          C#m  B
Não, não é o fim
A           B     E
Juntos venceremos sim

[Repete intro]

C#m                 A                      G#m      G#
 Eu não quero acreditar num futuro tão triste - não quero
C#m               A                       G#m    G#
 E um amigo a escutar não tenha que se fingir sincero
C#m                  A                      G#m    G#
 Talvez eu não tenha mais disposição para ouvir mentiras
C#m                   A                      G#m     G#
 Talvez eu não queira mais uma lembrança infeliz - antiga

E                G#m
Mas eu não tenho medo
              C#m                 B
De procurar e encontrar alguma resposta
E              G#m
Mesmo que seja cedo
                  C#m                  B
Ou alguém venha a atirar pelas minhas costas

A        B
Mais uma vez
G#m          C#m  B
Olha bem pra mim
A     B
E vai perceber
G#m              C#m  B
Que eu não sou assim
A      B
E você vai saber
G#m          C#m  B
Não, não é o fim
A           B     E
Juntos venceremos sim

[solo]
     E
E|------------------||
B|-4h5~-5-5-5-5-5-5-||
G|------------------|| 4x
D|------------------||
A|------------------||
E|------------------||

  C#m               A             G#m        G#
--------------------------------------------------------
4------4-5--4--5-7/9~--7/5-7-5-7-7b~--9r7p5-7--5-5-4h5p4
--5~--5-------------------------------------------------
--------------------------------------------------------
--------------------------------------------------------
--------------------------------------------------------

C#m           A                  G#m          G#
--------------------------------------------------------
--------------------------------------------------------
6~-6-6-6-----------------------6/9~-8-9-8-9-9b11~r9b11r9
----------9-7-7~--7-6-7~-6~--7--------------------------
--------------------------------------------------------
--------------------------------------------------------

C#m                  A
------------------------------
14b16r14--12-14-17-16-17b19r17
------------------------------
------------------------------
------------------------------
------------------------------

      G#m                            G#
------17-19b21r19b21~-19-17-19-17-16-16~
17/19-----------------------------------
----------------------------------------
----------------------------------------
----------------------------------------
----------------------------------------

C#m           A               G#m    G#
---------------------------------------
---------------------------------------
---------------------------------------
---------------------------------------
4~--4-6-7-6-4--------------------------
--------------5~--------------4~-------

     E                       G#m
||-------------||       ||-------------||
||------12p9---||       ||------12p9---||
||----9------9-|| 6x    ||----9------9-|| 5x
||-11----------||       ||-11----------||
||-------------||       ||-------------||
||-------------||       ||-------------||

   C#m                    B
-9/12--12-12-11-12-11~-11-12~-14-12-11~-
----------------------------------------
----------------------------------------
----------------------------------------
----------------------------------------
----------------------------------------

     E                       G#m
||-------------||       ||-------------||
||------12p9---||       ||------12p9---||
||----9------9-|| 6x    ||----9------9-|| 5x
||-11----------||       ||-11----------||
||-------------||       ||-------------||
||-------------||       ||-------------||

   C#m                    B
-9/12--12-12-11-12-11~-11-12~-14-12-11~----9~-
----------------------------------------------
----------------------------------------------
----------------------------------------------
----------------------------------------------
----------------------------------------------

A        B
Mais uma vez
G#m          C#m  B
Olha bem pra mim
A     B
E vai perceber
G#m              C#m  B
Que eu não sou assim
A      B
E você vai saber
G#m          C#m  B
Não, não é o fim
A           B     E
Juntos venceremos sim
Acordes para:
    Colaboração e revisão:
    • antonio júnior

    0 comentários

      mostrar mais comentários

      Conseguiu tocar?

      0tocaram0ainda não

      Grave um vídeo tocando Resposta e mande pra gente!

      00:00 / 00:00
      outros vídeos desta música
      repetirqualidadeautomática
      Outro vídeos desta música
        00:00 / 00:00
        automática
        OK