Cifra Club

Aprenda

The philosopher

Death

Cifra: Principal (violão e guitarra)
Tom: B
D||----------------------------------------| 
A||--0h-5h-8--12t-8h-5h-0h-5h-8--12t-8h-5h-| 
F||----------------------------------------| 
C||----------------------------------------| 
G||----------------------------------------| 
D||----------------------------------------| 


                                              
--------------------------------------------| 
--0h-7h-10--15t-10h-7h-0h-7h-10--13t-10h-7h-| 
--------------------------------------------| 
--------------------------------------------| 
--------------------------------------------| 
--------------------------------------------| 


                                          
----------------------------------------| 
--0h-5h-8--12t-8h-5h-0h-5h-8--12t-8h-5h-| 
----------------------------------------| 
----------------------------------------| 
----------------------------------------| 
----------------------------------------| 


                                          
----------------------------------------| 
--0h-4h-7--12t-7h-4h-0h-4h-7--10t-7h-4h-| 
----------------------------------------| 
----------------------------------------| 
----------------------------------------| 
----------------------------------------| 


                                          
----------------------------------------| 
--0h-5h-8--12t-8h-5h-0h-5h-8--12t-8h-5h-| 
----------------------------------------| 
----------------------------------------| 
----------------------------------------| 
----------------------------------------| 


                                              
--------------------------------------------| 
--0h-7h-10--15t-10h-7h-0h-7h-10--13t-10h-7h-| 
--------------------------------------------| 
--------------------------------------------| 
--------------------------------------------| 
--------------------------------------------| 


                                          
----------------------------------------| 
--0h-5h-8--12t-8h-5h-0h-5h-8--12t-8h-5h-| 
----------------------------------------| 
----------------------------------------| 
----------------------------------------| 
----------------------------------------| 


                                                            
----------------------------------------|-----------------| 
--0h-4h-7--12t-7h-4h-0h-4h-7--10t-7h-4--|-----------------| 
----------------------------------------|--4--------------| 
----------------------------------------|--4----2----4----| 
----------------------------------------|--2----2----4----| 
----------------------------------------|-------0----2----| 


                                                                         
-----------------------------|-----------|-----------------------------| 
-----------------------------|-----------|-----------------------------| 
-----------------------------|--4--------|-----------------------------| 
--3--3-3-3-3--3-3-3-3-3-3-3--|--4--2--4--|--3--3-3-3-3--3-3-3-3-3-3-3--| 
--3--3-3-3-3--3-3-3-3-3-3-3--|--2--2--4--|--3--3-3-3-3--3-3-3-3-3-3-3--| 
--1--1-1-1-1--1-1-1-1-1-1-1--|-----0--2--|--1--1-1-1-1--1-1-1-1-1-1-1--| 


                                                       
-----------|-----------------------------|-----------| 
-----------|-----------------------------|-----------| 
--4--------|-----------------------------|--4--------| 
--4--2--4--|--3--3-3-3-3--3-3-3-3-3-3-3--|--4--2--4--| 
--2--2--4--|--3--3-3-3-3--3-3-3-3-3-3-3--|--2--2--4--| 
-----0--2--|--1--1-1-1-1--1-1-1-1-1-1-1--|-----0--2--| 


                                                                         
-----------------------------|-----------|-----------------------------| 
-----------------------------|-----------|-----------------------------| 
-----------------------------|--4--------|-----------------------------| 
--3--3-3-3-3--3-3-3-3-3-3-3--|--4--2--4--|--3--3-3-3-3--3-3-3-3-3-3-3--| 
--3--3-3-3-3--3-3-3-3-3-3-3--|--2--2--4--|--3--3-3-3-3--3-3-3-3-3-3-3--| 
--1--1-1-1-1--1-1-1-1-1-1-1--|-----0--2--|--1--1-1-1-1--1-1-1-1-1-1-1--| 


                                                       
-----------|-----------------------------|-----------| 
-----------|-----------------------------|-----------| 
--4--------|-----------------------------|--4--------| 
--4--2--4--|--3--3-3-3-3--3-3-3-3-3-3-3--|--4--2--4--| 
--2--2--4--|--3--3-3-3-3--3-3-3-3-3-3-3--|--2--2--4--| 
-----0--2--|--1--1-1-1-1--1-1-1-1-1-1-1--|-----0--2--| 


                                                                         
-----------------------------|-----------|-----------------------------| 
-----------------------------|-----------|-----------------------------| 
-----------------------------|--4--------|-----------------------------| 
--3--3-3-3-3--3-3-3-3-3-3-3--|--4--2--4--|--3--3-3-3-3--3-3-3-3-3-3-3--| 
--3--3-3-3-3--3-3-3-3-3-3-3--|--2--2--4--|--3--3-3-3-3--3-3-3-3-3-3-3--| 
--1--1-1-1-1--1-1-1-1-1-1-1--|-----0--2--|--1--1-1-1-1--1-1-1-1-1-1-1--| 


                                                              
-------------------------------|----------------------------| 
-------------------------------|----------------------------| 
-------------------------------|----------------------------| 
--2----------------------------|----------------------------| 
--2----------7~---------6-7-9--|-------------7~---7-6-------| 
--0----0-0-0------0-0-0--------|--0----0-0-0----------7--9--| 


                                                           
-----------------------------|---------------------------| 
-----------------------------|---------------------------| 
-----------------------------|---------------------------| 
-----------------------------|---------------------------| 
--6----------7~---6-6-6--6-6-|--6----------6~------------| 
--4----4-4-7------4-4-4--4-4-|--4----4-4-4------0-3-3----| 


                                                           
-----------------------------|---------------------------| 
-----------------------------|---------------------------| 
-----------------------------|---------------------------| 
-----------------------------|---------------------------| 
--6----------7~---6-6-6--6-6-|--6----------6~------------| 
--4----4-4-7------4-4-4--4-4-|--4----4-4-4------0-3-3----| 


                                                    
------------------------|-------------------------| 
------------------------|-------------------------| 
------------------------|-------------------------| 
------------8-9-8-------|------------8-9-8--4--6--| 
--2----9----6-7-6-------|--2----9----6-7-6--2--4--| 
--0------------------7--|--0----------------------| 


                                                           
-----------------------------|---------------------------| 
-----------------------------|---------------------------| 
-----------------------------|---------------------------| 
-----------------------------|---------------------------| 
--6----------7~---6-6-6--6-6-|--6----------6~------------| 
--4----4-4-7------4-4-4--4-4-|--4----4-4-4------0-3-3----| 


                                                           
-----------------------------|---------------------------| 
-----------------------------|---------------------------| 
-----------------------------|---------------------------| 
-----------------------------|---------------------------| 
--6----------7~---6-6-6--6-6-|--6----------6~------------| 
--4----4-4-7------4-4-4--4-4-|--4----4-4-4------0-3-3----| 


                                                                               
--------------------------------------|--------------------------------------| 
--------------------------------------|--------------------------------------| 
--------------------------------------|--------------------------------------| 
-----------7-----------------7--------|-----------5-----------------5--------| 
--------------------------------------|--3--3--3-----3--3--3--3--3-----3--3--| 
--5--5--5-----5--5--5--5--5-----5--5--|--------------------------------------| 


                                                                               
--------------------------------------|--------------------------------------| 
--------------------------------------|--------------------------------------| 
--------------------------------------|--------------------------------------| 
--------------------------------------|-----------7-----------------7--------| 
-----5-----5-----5-----5-----5-----5--|--5--5--5-----5--5--5--5--5-----5--5--| 
--3-----3-----3-----3-----3-----3-----|--------------------------------------| 


                                                                               
--------------------------------------|--------------------------------------| 
--------------------------------------|--------------------------------------| 
--------------------------------------|--------------------------------------| 
-----------7-----------------7--------|-----------5-----------------5--------| 
--------------------------------------|--3--3--3-----3--3--3--3--3-----3--3--| 
--5--5--5-----5--5--5--5--5-----5--5--|--------------------------------------| 


                                                                               
--------------------------------------|--------------------------------------| 
--------------------------------------|--------------------------------------| 
--------------------------------------|--------------------------------------| 
--------------------------------------|-----------7-----------------7--------| 
-----------5-----------------5--------|--5--5--5-----5--5--5--5--5-----5--5--| 
--3--3--3-----3--3--3--3--3-----3--3--|--------------------------------------| 


                                                                               
--------------------------------------|--------------------------------------| 
--------------------------------------|--------------------------------------| 
--------------------------------------|--------------------------------------| 
-----------7-----------------7--------|-----------5-----------------5--------| 
--------------------------------------|--3--3--3-----3--3--3--3--3-----3--3--| 
--5--5--5-----5--5--5--5--5-----5--5--|--------------------------------------| 


                                                                               
--------------------------------------|--------------------------------------| 
--------------------------------------|--------------------------------------| 
--------------------------------------|--------------------------------------| 
--------------------------------------|-----------7-----------------7--------| 
-----------5-----------------5--------|--5--5--5-----5--5--5--5--5-----5--5--| 
--3--3--3-----3--3--3--3--3-----3--3--|--------------------------------------| 


                                                                               
--------------------------------------|--------------------------------------| 
--------------------------------------|--------------------------------------| 
--------------------------------------|--------------------------------------| 
-----------7-----------------7--------|-----------5-----------------5--------| 
--------------------------------------|--3--3--3-----3--3--3--3--3-----3--3--| 
--5--5--5-----5--5--5--5--5-----5--5--|--------------------------------------| 


                                                                               
--------------------------------------|--------------------------------------| 
--------------------------------------|--------------------------------------| 
--------------------------------------|-----------------------------------7--| 
--------------------------------------|-----------7-----------------5/-4--7--| 
-----------5-----------------5--------|--5--5--5-----5--5--5--5--5--------5--| 
--3--3--3-----3--3--3--3--3-----3--3--|--------------------------------------| 


                                                                          
--------------------|--------------------|---------|--------------------| 
--------------------|--------------------|---------|--------------------| 
--------0-----------|--------------------|---------|--------0-----------| 
-----4-----------3--|--------6--------4--|--5/4-0--|-----4-----------3--| 
--2-----------3-----|-----6--------2-----|---------|--2-----------3-----| 
-----------1--------|--4--------0--------|---------|-----------1--------| 


                                                                          
--------------------|---------|--------------------|--------------------| 
--------------------|---------|--------------------|--------------------| 
--------------------|---------|--------0-----------|--------------------| 
--------6--------4--|--5/4-0--|-----4-----------3--|--------6--------4--| 
-----6--------2-----|---------|--2-----------3-----|-----6--------2-----| 
--4--------0--------|---------|-----------1--------|--4--------0--------| 


                                                               
---------|--------------------|--------------------|---------| 
---------|--------------------|--------------------|---------| 
---------|--------0-----------|--------------------|---------| 
--5/4-0--|-----4-----------3--|--------6--------4--|--5/4-0--| 
---------|--2-----------3-----|-----6--------2-----|---------| 
---------|-----------1--------|--4--------0--------|---------| 


                                                                          
--------------------|--------------------|---------|--------------------| 
--------------------|--------------------|---------|--------------------| 
--------0-----------|--------------------|---------|--------0-----------| 
-----4-----------3--|--------6--------4--|--5/4-0--|-----4-----------3--| 
--2-----------3-----|-----6--------2-----|---------|--2-----------3-----| 
-----------1--------|--4--------0--------|---------|-----------1--------| 


                                                                         
-----------|-----------------|-----------------------------|-----------| 
-----------|-----------------|-----------------------------|-----------| 
-----------|--4--------------|-----------------------------|--4--------| 
-----------|--4----2----4----|--3--3-3-3-3--3-3-3-3-3-3-3--|--4--2--4--| 
--6--6/-5--|--2----2----4----|--3--3-3-3-3--3-3-3-3-3-3-3--|--2--2--4--| 
--4--------|-------0----2----|--1--1-1-1-1--1-1-1-1-1-1-1--|-----0--2--| 


                                                                         
-----------------------------|-----------|-----------------------------| 
-----------------------------|-----------|-----------------------------| 
-----------------------------|--4--------|-----------------------------| 
--3--3-3-3-3--3-3-3-3-3-3-3--|--4--2--4--|--3--3-3-3-3--3-3-3-3-3-3-3--| 
--3--3-3-3-3--3-3-3-3-3-3-3--|--2--2--4--|--3--3-3-3-3--3-3-3-3-3-3-3--| 
--1--1-1-1-1--1-1-1-1-1-1-1--|-----0--2--|--1--1-1-1-1--1-1-1-1-1-1-1--| 


                                                       
-----------|-----------------------------|-----------| 
-----------|-----------------------------|-----------| 
--4--------|-----------------------------|--4--------| 
--4--2--4--|--3--3-3-3-3--3-3-3-3-3-3-3--|--4--2--4--| 
--2--2--4--|--3--3-3-3-3--3-3-3-3-3-3-3--|--2--2--4--| 
-----0--2--|--1--1-1-1-1--1-1-1-1-1-1-1--|-----0--2--| 


                                                                         
-----------------------------|-----------|-----------------------------| 
-----------------------------|-----------|-----------------------------| 
-----------------------------|--4--------|-----------------------------| 
--3--3-3-3-3--3-3-3-3-3-3-3--|--4--2--4--|--3--3-3-3-3--3-3-3-3-3-3-3--| 
--3--3-3-3-3--3-3-3-3-3-3-3--|--2--2--4--|--3--3-3-3-3--3-3-3-3-3-3-3--| 
--1--1-1-1-1--1-1-1-1-1-1-1--|-----0--2--|--1--1-1-1-1--1-1-1-1-1-1-1--| 


                                                       
-----------|-----------------------------|-----------| 
-----------|-----------------------------|-----------| 
--4--------|-----------------------------|--4--------| 
--4--2--4--|--3--3-3-3-3--3-3-3-3-3-3-3--|--4--2--4--| 
--2--2--4--|--3--3-3-3-3--3-3-3-3-3-3-3--|--2--2--4--| 
-----0--2--|--1--1-1-1-1--1-1-1-1-1-1-1--|-----0--2--| 


                                                               
-----------------------------|-------------------------------| 
-----------------------------|-------------------------------| 
-----------------------------|-------------------------------| 
--3--3-3-3-3--3-3-3-3-3-3-3--|--2----------------------------| 
--3--3-3-3-3--3-3-3-3-3-3-3--|--2----------7~---------6-7-9--| 
--1--1-1-1-1--1-1-1-1-1-1-1--|--0----0-0-0------0-0-0--------| 


                                                            
----------------------------|-----------------------------| 
----------------------------|-----------------------------| 
----------------------------|-----------------------------| 
----------------------------|-----------------------------| 
-------------7~---7-6-------|--6----------7~---6-6-6--6-6-| 
--0----0-0-0----------7--9--|--4----4-4-7------4-4-4--4-4-| 


                                                           
---------------------------|-----------------------------| 
---------------------------|-----------------------------| 
---------------------------|-----------------------------| 
---------------------------|-----------------------------| 
--6----------6~------------|--6----------7~---6-6-6--6-6-| 
--4----4-4-4------0-3-3----|--4----4-4-7------4-4-4--4-4-| 


                                                                                
---------------------------|------------------------|-------------------------| 
---------------------------|------------------------|-------------------------| 
---------------------------|------------------------|-------------------------| 
---------------------------|------------8-9-8-------|------------8-9-8--4--6--| 
--6----------6~------------|--2----9----6-7-6-------|--2----9----6-7-6--2--4--| 
--4----4-4-4------0-3-3----|--0------------------7--|--0----------------------| 


                                                           
-----------------------------|---------------------------| 
-----------------------------|---------------------------| 
-----------------------------|---------------------------| 
-----------------------------|---------------------------| 
--6----------7~---6-6-6--6-6-|--6----------6~------------| 
--4----4-4-7------4-4-4--4-4-|--4----4-4-4------0-3-3----| 


                                                           
-----------------------------|---------------------------| 
-----------------------------|---------------------------| 
-----------------------------|---------------------------| 
-----------------------------|---------------------------| 
--6----------7~---6-6-6--6-6-|--6----------6~------------| 
--4----4-4-7------4-4-4--4-4-|--4----4-4-4------0-3-3----| 


                                                                            
------------------------|------------------------|------------------------| 
------------------------|------------------------|------------------------| 
------------------------|------------------------|------------------------| 
--7------8--------------|--7------8--------------|--2------3--------------| 
--7------8--------------|--7------8--------------|--2------3--------------| 
--5------6--------------|--5------6--------------|--0------1--------------| 


                                                                            
------------------------|------------------------|------------------------| 
------------------------|------------------------|------------------------| 
------------------------|------------------------|------------------------| 
--2------3--------------|--7------8--------------|--7------8--------------| 
--2------3--------------|--7------8--------------|--7------8--------------| 
--0------1--------------|--5------6--------------|--5------6--------------| 


                                                                            
------------------------|------------------------|------------------------| 
------------------------|------------------------|------------------------| 
------------------------|------------------------|------------------------| 
--2------3--------------|--2------3--------------|--7------8--------------| 
--2------3--------------|--2------3--------------|--7------8--------------| 
--0------1--------------|--0------1--------------|--5------6--------------| 


                                                                            
------------------------|------------------------|------------------------| 
------------------------|------------------------|------------------------| 
------------------------|------------------------|------------------------| 
--7------8--------------|--2------3--------------|--2------3--------------| 
--7------8--------------|--2------3--------------|--2------3--------------| 
--5------6--------------|--0------1--------------|--0------1--------------| 


                 
--------------|| 
--------------|| 
--------------|| 
--------------|| 
--------------|| 
--------------|| 
Composição de Chuck Schuldiner
Colaboração e revisão:
  • Gerdson Petri
8.114 exibições
    • ½ Tom
    • A
    • Bb
    • B
    • C
    • Db
    • D
    • Eb
    • E
    • F
    • F#
    • G
    • Ab
  • Adicionar à lista

    0 comentários

    Mostrar mais comentários

    Conseguiu tocar?

    2 Tocaram 0 Ainda não

    Grave um vídeo tocando The philosopher e mande pra gente!

    00:00 / 00:00
    outros vídeos desta música
    repetir qualidade Automático
    Outros vídeos desta música
    00:00 / 00:00
    Automático

    Cifra Club Pro

    Aproveite o Cifra Club com benefícios exclusivos e sem anúncios
    7 dias grátis
    Cifra Club Pro
    Aproveite o Cifra Club com benefícios exclusivos e sem anúncios
    7 dias grátis
    OK