Cifra Club

Aprenda

Fools

Deep Purple

Tab de baixo: Principal
|---------|---------|----------9------|---------|----------9------|
|------9--|------9--|------9------11--|--9--11--|------9------11--|
|--11-----|--11-----|--11-------------|---------|--11-------------|
|---------|---------|-----------------|---------|-----------------|

|---------|-----------------|-----------|---------|
|--9------|----------9------|-----------|------9--|
|-----11--|--9--11------11--|--9--7-----|--11-----|
|---------|-----------------|--------9--|---------|

|-----|-------------|-----|-----|---------|
|--9--|--9---9---9--|--9--|--9--|--9---9--|
|-----|-------------|-----|-----|---------|
|-----|-------------|-----|-----|---------|

|-----|-------------|-----|-----|---------|
|--9--|--9---9---9--|--9--|--9--|--9---9--|
|-----|-------------|-----|-----|---------|
|-----|-------------|-----|-----|---------|

|-----|-------------|-----|-----|---------|
|--9--|--9---9---9--|--9--|--9--|--9---9--|
|-----|-------------|-----|-----|---------|
|-----|-------------|-----|-----|---------|

|-----|-------------|-----|-----|---------|
|--9--|--9---9---9--|--9--|--9--|--9---9--|
|-----|-------------|-----|-----|---------|
|-----|-------------|-----|-----|---------|

|-----|-------------|-----|-----|---------|
|--9--|--9---9---9--|--9--|--9--|--9---9--|
|-----|-------------|-----|-----|---------|
|-----|-------------|-----|-----|---------|

   bad blood...
   own way...
|--------------------|--------------|--------------------|-------------|
|*-------0--2-----0--|--2-----0-----|--------0--2-----0--|-------------|
|*-2-----------------|-----------2--|--2-----------------|--0---2---2--|
|--------------------|--------------|--------------------|-------------|

|--------------------|--------------|--------------------|-------------|-----|
|--------0--2-----0--|--2-----0-----|--------0--2-----0--|-------------|-----|
|--2-----------------|-----------2--|--2-----------------|--0---2---2--|--0--|
|--------------------|--------------|--------------------|-------------|-----|

                                                   died...
                                                   smile...
                                                   please...
|--------------------------|-----------------4--|--2-----2---2--4--------|
|-----------------------0--|--------4--2--------|------------------2--4--|
|--0-----0--1--2--3--4-----|--2-----------------|------------------------|
|-----4--------------------|--------------------|------------------------|

   on some...                                    reasons...
   on some...                                    blind...
   on some...                                    laugh as...
|------2---------------|----------------------|-----------------------4--|
|--0------0------------|----------------------|-----------4--2--2--2-----|
|------------4---4--4--|----------------------|--2--2--2-----------------|
|----------------------|--0---0---0--0--0--0--|--------------------------|

                         fools pass...
                         fools smiles...
                         fools die...
|--2--2--2--2--4------|------2------------|
|------------------4--|--0----------0--1--|para o coda
|---------------------|---------4---------|
|---------------------|-------------------|

 1___________
|---------------------------|-----------------1--------|--------------------|-----|
|--2------------------------|--2--2-----2--2-----0--0--|-----------0-----0--|-----|
|--------------------2---2--|--------------------------|--------2-----2-----|-----|
|-----0---0---0---0---------|--------------------------|--0-----------------|--0--|

                  2_______________________________
|---------|-----|---------------------------------|-------------|-------------------|-----|-----|
|---------|----*|---------------------------0--2--|--2----------|-------------------|-----|-----|
|---------|----*|--------------2---2--2--2--------|-------------|-------------------|-----|-----|
|--0---0--|--0--|--0--0--0--0---------------------|------0---0--|--0---0---0--0--0--|--0--|--0--|

|-----|-----|-----|-----|-----|-----|-----|-----|-----|
|-----|-----|-----|-----|-----|-----|-----|-----|-----|
|-----|-----|-----|-----|-----|-----|-----|-----|-----|
|-----|-----|-----|-----|-----|-----|-----|-----|-----|

|-----|-----|-----|-----|-----|-----|-----|-----|-----|-----|-----|-----|
|-----|-----|-----|-----|-----|-----|-----|-----|-----|-----|-----|-----|
|-----|-----|-----|-----|-----|-----|-----|-----|-----|-----|-----|-----|
|-----|-----|-----|-----|-----|-----|-----|-----|-----|-----|-----|-----|

|-----|-----|-----|-----|-----|-----|-----|-----|-----|-----|-----|-----|
|-----|-----|-----|-----|-----|-----|-----|-----|-----|-----|-----|-----|
|-----|-----|-----|-----|-----|-----|-----|-----|-----|-----|-----|-----|
|-----|-----|-----|-----|-----|-----|-----|-----|-----|-----|-----|-----|

|-----|-----|-----|-----|-----|-----|-----|-----|-----|-----|-----|-----|
|-----|-----|-----|-----|-----|-----|-----|-----|-----|-----|-----|-----|
|-----|-----|-----|-----|-----|-----|-----|-----|-----|-----|-----|-----|
|-----|-----|-----|-----|-----|-----|-----|-----|-----|-----|-----|-----|

|-----|-----|-----|-----|-----|-----|-----|-----|-----|-----|-----|-----|
|-----|-----|-----|-----|-----|-----|-----|-----|-----|-----|-----|-----|
|-----|-----|-----|-----|-----|-----|-----|-----|-----|-----|-----|-----|
|-----|-----|-----|-----|-----|-----|-----|-----|-----|-----|-----|-----|

|---------------------------------|---------------------------------|------------------------------|-----|
|---------------------------------|------------------------------2--|------------------------------|-----|
|------------------------0--2--2--|------------------------0--2-----|------------------------------|-----|
|--0---0---0-----0---0------------|--0---0---0-----0---0------------|--0---0---0-----0--0---3---2--|--0--|

|----------------------------------|---------------------------------------|-----------|-----|
|----------------------------------|---------------------------------------|-----------|-----|
|----------------------------------|------------------0--0--0--0--0--2--2--|-----------|-----|
|--0--0--0---0--0--0---0--0--0--0--|--0---3-----0--0-----------------------|--0-----0--|--0--|

|-----|-------------|---------|-----|-----|-----|-----|
|-----|-------------|---------|-----|-----|-----|-----|
|-----|-------------|---------|-----|-----|-----|-----|
|--0--|--0---0---0--|--0---0--|--0--|-----|-----|-----|
Composição de Ian Gillan / Ian Paice / Jon Lord / Ritchie Blackmore / Roger Glover
204 exibições

0 comentários

Mostrar mais comentários

Conseguiu tocar?

0 Tocaram 0 Ainda não

Grave um vídeo tocando Fools e mande pra gente!

00:00 / 00:00
outros vídeos desta música
repetir qualidade Automático
Outros vídeos desta música
00:00 / 00:00
Automático

Cifra Club Pro

Aproveite o Cifra Club com benefícios exclusivos e sem anúncios
7 dias grátis
Cifra Club Pro
Aproveite o Cifra Club com benefícios exclusivos e sem anúncios
7 dias grátis
OK