Cifra Club

Aprenda

Highway Star Solo

Deep Purple

Cifra: Principal (violão e guitarra)
Tom: C
--------------------------------- ----------------------------------------||
B|| --------------------------------|-------------------------13^---------||
G|| --------------------------------|---------------------10--------------||
D|| --------------------------------|---------------10/12-----------------||
A|| --------------------------------|-------------------------------------||
E|| --------------------------------|-------------------------------------||

                             (1)          ~~~~~~~~~~~~             (1)
E|| ---------------------------------|-----------------------------12^- ||
B|| ------------------------13^------|-------------------------10------ ||
G|| --------------------10-----------|-----------------10-------------- ||
D|| ----------------12---------------|--------------------------------- ||
A|| ---------------------------------|--------------------------------- ||
E|| ---------------------------------|--------------------------------- ||

                   (.25)          ~~~~~~~~~                    (1)~~~~~~~~~
E|| -12--12--10----------------------|--------------------------------------||
B|| --------------10-----------------|---------------------13^--------------||
G|| ----------------10------12--10^--|----------------11--------------------||
D|| ---------------------12----------|----------12--------------------------||
A|| ---------------------------------|--------------------------------------||
E|| ---------------------------------|--------------------------------------||

                             (1)          ~~~~~~~~~~~~             (1)
E|| ---------------------------------|-----------------------------12^- ||
B|| ------------------------13^------|-------------------------10------ ||
G|| --------------------10-----------|-----------------10-------------- ||
D|| ----------------12---------------|-----------12--------------------- ||
A|| ---------------------------------|--------------------------------- ||
E|| ---------------------------------|--------------------------------- ||

                  (.25)          ~~~~~~~~~~~~~~~~~~~         (1)
E|| -12--12--10----------------------|-------------------------------------||
B|| -------------13--------------------|------------------------8^---------||
G|| ----------------10------12--10^--|-------------------------------------||
D|| ---------------------12----------|-------------------------------------||
A|| ---------------------------------|-------------------------------------||
E|| ---------------------------------|-------------------------------------||

          (1)               (1)             (1)                (1)
E|| ---------------------------------|--------------------------------- ||
B|| ------8^----------------8^-------|------8^-----------------8^------ ||
G|| ---------------------------------|--------------------------------- ||
D|| ---------------------------------|--------------------------------- ||
A|| ---------------------------------|--------------------------------- ||
E|| ---------------------------------|--------------------------------- ||

                  (.25)                (.25)        ~~~~~~~~~~~
E|| ---------------------------------|--------------------------------- ||
B|| -8--8--7--5----------------------|--------------------------------- ||
G|| --------------5^------7----5-----|---5----------------------------- ||
D|| ------------------7--------------|---------7---7----------5---7---- ||
A|| ---------------------------------|--------------------------------- ||
E|| ---------------------------------|--------------------------------- ||

      (.25)     (.25)      (.25)       (.25)      (.25)        (.25)
E|| ---------------------------------|--------------------------------- ||
B|| ---------------------------------|--------------------------------- ||
G|| --5^---------5^---------5^-------|--5^----------5^----------5^----- ||
D|| ------7--5-------7--5--------7---|------7---5-------7---5------7-0- ||
A|| ---------------------------------|--------------------------------- ||
E|| ---------------------------------|--------------------------------- ||

        (1)        (1)      (1)         (1)    (1)    (1)    (1)    (1)
E|| ---------------------------------|------------------------------8^- ||
B|| ----8^---------8^-------8^-------|--8^-----8^-----8^-----8^-------- ||
G|| ---------------------------------|--------------------------------- ||
D|| ---------------------------------|--------------------------------- ||
A|| ---------------------------------|--------------------------------- ||
E|| ---------------------------------|--------------------------------- ||

                       ~~~~    (1)                        ~~~~   (1)
E|| ----8---5------------------8^----|-----8---5-----------------8^---- ||
B|| --------------6------------------|---------------6----------------- ||
G|| -------------------7-------------|--------------------7------------ ||
D|| ---------------------------------|--------------------------------- ||
A|| ---------------------------------|--------------------------------- ||
E|| ---------------------------------|--------------------------------- ||
                               (1)
E|| ----------8---5------------8^----|----8---5----------------------------||
B|| -------------------6-------------|-------------6-----------------------||
G|| ------------------------7--------|-------------------7-----------------||
D|| ---------------------------------|-------------------------------------||
A|| ---------------------------------|-------------------------------------||
E|| ---------------------------------|-------------------------------------||

                      ~~~~    (1)                          ~~~~
E|| -10^---10---8----------------10^----|----10----8------------------------||
B|| --------------8------------------|----------------8---------------------||
G|| ------------------9^--------------|---------------------9^--------------||
D|| ---------------------------------|--------------------------------------||
A|| ---------------------------------|--------------------------------------||
E|| ---------------------------------|--------------------------------------||

        (1)             (1)               (1)                 (1)
E|| -------5--------------6----------|-------7-------------------8----- ||
B|| ----8^--------------9^-----------|----10^-----------------11^------ ||
G|| ---------------------------------|--------------------------------- ||
D|| ---------------------------------|--------------------------------- ||
A|| ---------------------------------|--------------------------------- ||
E|| ---------------------------------|--------------------------------- ||

E|| ----8---5------------------8^----|-----8---5-----------------8^---- ||
B|| --------------6------------------|---------------6----------------- ||
G|| -------------------7-------------|--------------------7------------ ||
D|| ---------------------------------|--------------------------------- ||
A|| ---------------------------------|--------------------------------- ||
E|| ---------------------------------|--------------------------------- ||

E|| -------8^--8----6---------------|----8^--8^----6------------------ -----||
B|| -------------------8-------------|-----------------8--------------- ----||
G|| ------------------------7^--------|--------------------7^------------ --||
D|| ---------------------------------|--------------------------------- ----||
A|| ---------------------------------|--------------------------------- ----||
E|| ---------------------------------|--------------------------------- ----||

                      ~~~~    (1)                          ~~~~
E|| -10^---10---8----------------10^----|----10----8---------------------- --||
B|| --------------8------------------|----------------8---------------- -----||
G|| ------------------9^--------------|---------------------9^----------- ---||
D|| ---------------------------------|--------------------------------- -----||
A|| ---------------------------------|--------------------------------- -----||
E|| ---------------------------------|--------------------------------- -----||

        (1)             (1)               (1)                 (1)
E|| -------5--------------6----------|-------7-------------------8----- ||
B|| ----8^--------------9^-----------|----10^-----------------11^------ ||
G|| ---------------------------------|--------------------------------- ||
D|| ---------------------------------|--------------------------------- ||
A|| ---------------------------------|--------------------------------- ||
E|| ---------------------------------|--------------------------------- ||

E|| -5-6-8-8-5-6-8-8-5-6-8-8-5-6-8-8-|-5-6-8-8-5-6-8-8-5-6-8-8-5-6-8-8- ||
B|| ---------------------------------|--------------------------------- ||
G|| ---------------------------------|--------------------------------- ||
D|| ---------------------------------|--------------------------------- ||
A|| ---------------------------------|--------------------------------- ||
E|| ---------------------------------|--------------------------------- ||

E|| -6-8-10-10-6-8-10-10-6-8-10-10-6-8-10-10-|
B|| -----------------------------------------|
G|| -----------------------------------------|
D|| -----------------------------------------|
A|| -----------------------------------------|
e|| -----------------------------------------|

E|| -6-8-10-10-6-8-10-10-6-8-10-10-6-8-10-10-|
B|| -----------------------------------------|
G|| -----------------------------------------|
D|| -----------------------------------------|
A|| -----------------------------------------|
e|| -----------------------------------------|

E|| -8-10-12-12-8-10-12-12-8-10-12-12-8-10-12-12-|
B|| ---------------------------------------------|
G|| ---------------------------------------------|
D|| ---------------------------------------------|
A|| ---------------------------------------------|
e|| ---------------------------------------------|

E|| -8-10-12-12-8-10-12-12-8-10-12-12-8-10-12-12-|
B|| ---------------------------------------------|
G|| ---------------------------------------------|
D|| ---------------------------------------------|
A|| ---------------------------------------------|
e|| ---------------------------------------------|

E|-17-17-0-0-15-14-0-0-14-13-0-0-13-12-0-0-|
B|| ----------------------------------------|
G|| ----------------------------------------|
D|| ----------------------------------------|
A|| ----------------------------------------|
e|| ----------------------------------------|

E|-12-11-0-0-11-10-0-0-10-9-0-0-9-8-0-0-|-5-6-8-8-5-6-8-8-5-6-8-8-5-6-8-8--||
B|| --------------------------------------|---------------------------------||
G|| --------------------------------------|---------------------------------||
D|| --------------------------------------|---------------------------------||
A|| --------------------------------------|---------------------------------||
e|| --------------------------------------|---------------------------------||

E|-5-6-8-8-5-6-8-8-5-6-8-8-5-6-8-8-|-6-8-10-10-6-8-10-10-6-8-10-10-6-8-10-10||
B|---------------------------------|----------------------------------------||
G|---------------------------------|----------------------------------------||
D|---------------------------------|----------------------------------------||
A|---------------------------------|----------------------------------------||
E|---------------------------------|----------------------------------------||

E|| -6-8-10-10-6-8-10-10-6-8-10-10-6-8-10-10-|
B|| -----------------------------------------|
G|| -----------------------------------------|
D|| -----------------------------------------|
A|| -----------------------------------------|
e|| -----------------------------------------|

E|| -8-10-12-12-8-10-12-12-8-10-12-12-8-10-12-12-|
B|| ---------------------------------------------|
G|| ---------------------------------------------|
D|| ---------------------------------------------|
A|| ---------------------------------------------|
e|| ---------------------------------------------|

E|| -8-10-12-12-8-10-12-12------10-12-12-12-13-15-16-|
B|| -------------------------------------------------|
G|| -------------------------------------------------|
D|| -------------------------------------------------|
A|| -------------------------------------------------|
e|| -------------------------------------------------|

E|-17-17-0-0-15-14-0-0-14-13-0-0-13-12-0-0-|
B|| ----------------------------------------|
G|| ----------------------------------------|
D|| ----------------------------------------|
A|| ----------------------------------------|
e|| ----------------------------------------|

E|12-11-0-0-11-10-0-0-10-9-0-0-9-8-0-0-|12-11-0-0-11-10-0-0-10-9-0-0-9-8-0-0-||
B|-------------------------------------|-------------------------------------||
G|-------------------------------------|-------------------------------------||
D|-------------------------------------|-------------------------------------||
A|-------------------------------------|-------------------------------------||
E|-------------------------------------|-------------------------------------||

E|| -8-7-0-0-7-6-0-0-6-5-0-0-5-4-0-0-|-4-3-0-0-3-2-0-0-2-2-0-0-3-3-0-0- ||
B|| ---------------------------------|--------------------------------- ||
G|| ---------------------------------|--------------------------------- ||
D|| ---------------------------------|--------------------------------- ||
A|| ---------------------------------|--------------------------------- ||
e|| ---------------------------------|--------------------------------- ||

                                        (1)                      (.25)
E|| --4-4-0-0-5-5-0-0-6-6-0-0-7-7-0--|--------5------------------------ ||
B|| ---------------------------------|--8^-------8---7---5------------- ||
G|| ---------------------------------|-----------------------8----7^--- ||
D|| ---------------------------------|--------------------------------- ||
A|| ---------------------------------|--------------------------------- ||
e|| ---------------------------------|--------------------------------- ||

               (.25)            (1)
E|| ---------------------------------|-------5------------------------- ||
B|| --------------------------8^-----|--8--------8---5----------------- ||
G|| --5-----7--5^--------------------|-------------------8---7---5----- ||
D|| -----7---------7----0------------|-------------------------------7- ||
A|| ---------------------------------|--------------------------------- ||
e|| ---------------------------------|--------------------------------- ||

                                          ~~~~~~~~~~
E|| ---------------------------------|--------------------------------- ||
B|| ------------------------5--------|--------------------------------- ||
G|| ---7---5----------------5--------|----5----------------5\-0-------- ||
D|| -----------7---5---7-------------|--------------------------------- ||
A|| ---------------------------------|--------------------------------- ||
e|| ---------------------------------|--------------------------------- ||
Colaboração e revisão:
  • Daniel Pinheiro
17.472 exibições
    • ½ Tom
    • A
    • Bb
    • B
    • C
    • Db
    • D
    • Eb
    • E
    • F
    • F#
    • G
    • Ab
  • Adicionar à lista

    0 comentários

    Mostrar mais comentários

    Conseguiu tocar?

    1 Tocaram 0 Ainda não

    Grave um vídeo tocando Highway Star Solo e mande pra gente!

    00:00 / 00:00
    outros vídeos desta música
    repetir qualidade Automático
    Outros vídeos desta música
    00:00 / 00:00
    Automático

    Cifra Club Pro

    Aproveite o Cifra Club com benefícios exclusivos e sem anúncios
    7 dias grátis
    Cifra Club Pro
    Aproveite o Cifra Club com benefícios exclusivos e sem anúncios
    7 dias grátis
    OK