Cifra Club

Aprenda

Into The Fire

Deep Purple

Tab de baixo: Estudio
|--------------------------|---------------------------|--------------------------|---------------------------|
|----------------0--0---1--|--2------------------------|----------------0--0---1--|--2------------------------|
|--2---2---0--2------------|---------------------0--1--|--2---2---0--2------------|---------------------0--1--|
|--------------------------|-----0---1--2--3--4--------|--------------------------|-----0---1--2--3--4--------|

|--------------------------|---------------------------|---------------------------|
|----------------0--0---1--|--2------------------------|---------------------0--1--|
|--2---2---0--2------------|---------------------0--1--|--2--0---1--2--3--4--------|
|--------------------------|-----0---1--2--3--4--------|---------------------------|

   take the trouble...   things...               will not...           
|------9-------9------|------9----------------|------9-------9------|------9----------------|
|---------------------|-----------------------|---------------------|-----------------------|
|--7-------7----------|--7-------7------------|--7-------7----------|--7-------7------------|
|---------------------|--------------0--3--5--|---------------------|--------------0--3--5--|

   see the...            can't you...            gonna...
|------9-------9------|------9----------------|----------4--2------2---3--|
|---------------------|-----------------------|----------------4----------|
|--7-------7----------|--7-------7------------|--2---2--------------------|
|---------------------|--------------0--3--5--|---------------------------|

   you're gonna
|--4---4---9--7------------|---------|--------------------------|---------------------------|
|----------------9--7------|---------|----------------0--0---1--|--2------------------------|
|----------------------10--|--7---7--|--2---2---0--2------------|---------------------0--1--|
|--------------------------|---------|--------------------------|-----0---1--2--3--4--------|

|--------------------------|---------------------------|
|----------------0--0---1--|--2------------------------|
|--2---2---0--2------------|---------------------0--1--|
|--------------------------|-----0---1--2--3--4--------|

|--------------------------|---------------------------|---------------------------|
|----------------0--0---1--|--2------------------------|---------------------0--1--|
|--2---2---0--2------------|---------------------0--1--|--2--0---1--2--3--4--------|
|--------------------------|-----0---1--2--3--4--------|---------------------------|

   turn on...        given to you            see if...         others do
|------9-------9--|------9----------------|------9-------9--|------9----------------|
|-----------------|-----------------------|-----------------|-----------------------|
|--7-------7------|--7-------7------------|--7-------7------|--7-------7------------|
|-----------------|--------------0--3--5--|-----------------|--------------0--3--5--|

   feel the...       when you're...
|------9-------9--|------9----------------|----------4--2-----2---3--|--4---4---9--7------------|---------|
|-----------------|-----------------------|----------------4---------|----------------9--7------|---------|
|--7-------7------|--7-------7------------|--2---2-------------------|----------------------10--|--7---7--|
|-----------------|--------------0--3--5--|--------------------------|--------------------------|---------|

|--------------------------|---------------------------|
|----------------0--0---1--|--2------------------------|
|--2---2---0--2------------|---------------------0--1--|
|--------------------------|-----0---1--2--3--4--------|

|--------------------------|---------------------------|
|----------------0--0---1--|--2------------------------|
|--2---2---0--2------------|---------------------0--1--|
|--------------------------|-----0---1--2--3--4--------|

|--------------------------|---------------------------|---------------------------|
|----------------0--0---1--|--2------------------------|---------------------0--1--|
|--2---2---0--2------------|---------------------0--1--|--2--0---1--2--3--4--------|
|--------------------------|-----0---1--2--3--4--------|---------------------------|

|------9-------9--|------9-----------------|------9-------9--|------9-----------------|
|-----------------|------------------------|-----------------|------------------------|
|--7-------7------|--7-------7-------------|--7-------7------|--7-------7-------------|
|-----------------|--------------0--3---5--|-----------------|--------------0--3---5--|

|------9-------9--|------9-----------------|------9-------9--|------9-----------------|
|-----------------|------------------------|-----------------|------------------------|
|--7-------7------|--7-------7-------------|--7-------7------|--7-------7-------------|
|-----------------|--------------0--3---5--|-----------------|--------------0--3---5--|

|---------|---------|--------------------3--4--|-----------------------|
|---------|---------|--------3--4--------------|-----------------0--1--|
|--2---2--|--2---2--|--1--2--------1--2--------|--0--1--2--3--4--------|
|---------|---------|--------------------------|-----------------------|

   stop your...      over and done            listen...         message I've sung
|------9-------9--|------9-----------------|------9-------9--|------9-----------------|
|-----------------|------------------------|-----------------|------------------------|
|--7-------7------|--7-------7-------------|--7-------7------|--7-------7-------------|
|-----------------|--------------0--3---5--|-----------------|--------------0--3---5--|

   feel the...       when you're...           gonna get...               you're gonna
|------9-------9--|------9-----------------|----------4--2-----2---3--|--4---4---9--7------------|---------|
|-----------------|------------------------|----------------4---------|----------------9--7------|---------|
|--7-------7------|--7-------7-------------|--2---2-------------------|----------------------10--|--7---7--|
|-----------------|--------------0--3---5--|--------------------------|--------------------------|---------|

|--------------------------|---------------------------|
|----------------0--0---1--|--2------------------------|
|--2---2---0--2------------|---------------------0--1--|
|--------------------------|-----0---1--2--3--4--------|

|--------------------------|---------------------------|
|----------------0--0---1--|--2------------------------|
|--2---2---0--2------------|---------------------0--1--|
|--------------------------|-----0---1--2--3--4--------|

|--------------------------|---------------------------|
|----------------0--0---1--|--2------------------------|
|--2---2---0--2------------|---------------------0--1--|
|--------------------------|-----0---1--2--3--4--------|

|--------------------------|---------------------------|---------------------------|
|----------------0--0---1--|--2------------------------|---------------------0--1--|
|--2---2---0--2------------|---------------------0--1--|--2--0---1--2--3--4--------|
|--------------------------|-----0---1--2--3--4--------|---------------------------|

|--------------------3--4--|--------------------3--4--|--------------------3--4--|-----|
|--------3--4--------------|--------3--4--------------|--------3--4--------------|-----|
|--1--2--------1--2--------|--1--2--------1--2--------|--1--2--------1--2--------|--0--|
|--------------------------|--------------------------|--------------------------|-----|
Composição de Deep Purple / Ian Gillan / Ian Paice / Jon Lord / Ritchie Blackmore / Roger Glover
Colaboração e revisão:
  • valdir júnior
38 exibições

0 comentários

Ver todos os comentários

Conseguiu tocar?

0 Tocaram 0 Ainda não

Grave um vídeo tocando Into The Fire e nos envie!

00:00 / 00:00
Outros vídeos desta música
Repetir Qualidade Automático
Outros vídeos desta música
00:00 / 00:00
Automático

Cifra Club Pro

Aproveite o Cifra Club com benefícios exclusivos e sem anúncios
Cifra Club Pro
Aproveite o Cifra Club com benefícios exclusivos e sem anúncios
OK