Cifra Club

Aprenda

Nobody's home

Deep Purple

Cifra: Principal (violão e guitarra)
tom: G
E|------------------|------------------------|-----------------|------------------------| 
B|------------------|------------------------|-----------------|--------3---------------| 
G|------------------|------------------------|-----------------|---0----2---------------| 
D|------------------|---------------------7B-|-----------------|---0----0---------------| 
A|-----------3------|-----------5B--3--0-----|------------3----|---2----X-NÃO FAZ-------| 
E|--0--3--5-----5---|--0--3--5---------------|---0--3--5----5--|---3----2-NA-REPETIÇÃO--| 2X

Refrão Guitarra 2
E|------------------------------------------------------------|-------------------------------------| 
B|-----------------------------------------------8b--8--5-----|-------------------------------------| 
G|-1--------------5-------------------7br--5---------------8--|--7--5---7b--5b---7---5----7--5------| 
D|-2-------5--7------7--5--7B----5--7---------7---------------|-------5--------7--------7-------7--5| 
A|-2----7----------------------7------------------------------|-------------------------------------| 
E|-0----------------------------------------------------------|-------------------------------------| 

E|----------------------------------------------------------|---------------------------------------| 
B|---------------------------------------------8b--8--5-----|---------------------------------------| 
G|--------------5-------------------7br--5---------------8--|-7b-----9--8--7b------9--8--7b---------| 
D|-------5--7------7--5--7B----5--7---------7---------------|-----------------------------------5--7| 
A|----7----------------------7------------------------------|--------------------------------7------| 
E|----------------------------------------------------------|---------------------------------------| 

|-----------------------| 
|-----------------------| 
|-----------------------| 
|-----------------------| 
|-3---------------------| 
|-----5b~~~~~~----------| 

E|------------------|------------------------|-----------------|------------------------| 
B|------------------|------------------------|-----------------|--------3---------------| 
G|------------------|------------------------|-----------------|---0----2---------------| 
D|------------------|---------------------7B-|-----------------|---0----0---------------| 
A|-----------3------|-----------5B--3--0-----|------------3----|---2----X-NÃO FAZ-------| 
E|--0--3--5-----5---|--0--3--5---------------|---0--3--5----5--|---3----2-NA-REPETIÇÃO--| 2X

Refrão Guitarra 1
E|--------------------------------------------------------------|--------------------------------| 
B|--------------------------------------------------------------|--------------------------------| 
G|-1------------------------------------------------------------|--------------------------------| 
D|-2-------------------------------------------------7b--5------|--------------------------------| 
A|-2-----------3--------------3-----------5br--3--0--------7--6-|--5--3----5b-3b-----5--3--------| 
E|-0--0--3--5-----5--3--5-5B-----0--3--5------------------------|-------5---------5--------5--3b-| 

E|------------------------------------------------------------|------------------------------------| 
B|------------------------------------------------------------|------------------------------------| 
G|------------------------------------------------------------|------------------------------------| 
D|-------------------------------------------------7b--5------|------------------------------------| 
A|-----------3--------------3-----------5br--3--0--------7--6-|-5b-----7--6--5b----7--6--5b -------| 
E|--0--3--5-----5--3--5-5B-----0--3--5------------------------|-------------------------------0-3-5| 

Solo 1
E|------6--------------------|-----------------------------------------------|--------------------| 
B|--8br---8-7-6h5h6--5h4h5h4-|-3h4h3---3h4h3---------------------------------|--------------------| 
G|---------------------------|-------5-------5--4h3--5-5h3---3---------------|-------------5br ha-| 
D|---------------------------|-----------------------------5---5h4h3---3--5--|--------------------| 
A|---------------------------|---------------------------------------6-------|-6---1/3------------| 
E|---------------------------|-----------------------------------------------|--------------------| 

Solo do Órgão
E|------------------|---------------------|  |------------------| 
B|------12-----12---|-----------12----12--|  |------------------| 
G|------12-----12---|-----------12----12--|  |--0~~-------------| 
D|------12-----12---|-----------12----12--|  |--0~~-------------| 
A|------------------|---------------------|  |--2~~---3br-------| 
E|--0-------0-------|--0--0--0------0-----|4x|--3~~-------------| 

E|------------------|------------------------|-----------------|------------------------| 
B|------------------|------------------------|-----------------|--------3---------------| 
G|------------------|------------------------|-----------------|---0----2---------------| 
D|------------------|---------------------7B-|-----------------|---0----0---------------| 
A|-----------3------|-----------5B--3--0-----|------------3----|---2----X-NÃO FAZ-------| 
E|--0--3--5-----5---|--0--3--5---------------|---0--3--5----5--|---3----2-NA-REPETIÇÃO--| 2X

Refrão Guitarra 2
E|------------------------------------------------------------|-------------------------------------| 
B|-----------------------------------------------8b--8--5-----|-------------------------------------| 
G|-1--------------5-------------------7br--5---------------8--|--7--5---7b--5b---7---5----7--5------| 
D|-2-------5--7------7--5--7B----5--7---------7---------------|-------5--------7--------7-------7--5| 
A|-2----7----------------------7------------------------------|-------------------------------------| 
E|-0----------------------------------------------------------|-------------------------------------| 

E|----------------------------------------------------------|---------------------------------------| 
B|---------------------------------------------8b--8--5-----|---------------------------------------| 
G|--------------5-------------------7br--5---------------8--|-7b-----9--8--7b------9--8--7b---------| 
D|-------5--7------7--5--7B----5--7---------7---------------|-----------------------------------5--7| 
A|----7----------------------7------------------------------|--------------------------------7------| 
E|----------------------------------------------------------|---------------------------------------| 

Refrã Guitarra 1
E|--------------------------------------------------------------|--------------------------------| 
B|--------------------------------------------------------------|--------------------------------| 
G|-1------------------------------------------------------------|--------------------------------| 
D|-2-------------------------------------------------7b--5------|--------------------------------| 
A|-2-----------3--------------3-----------5br--3--0--------7--6-|--5--3----5b-3b-----5--3--------| 
E|-0--0--3--5-----5--3--5-5B-----0--3--5------------------------|-------5---------5--------5--3b-| 

E|------------------------------------------------------------|------------------------------------| 
B|------------------------------------------------------------|------------------------------------| 
G|------------------------------------------------------------|------------------------------------| 
D|-------------------------------------------------7b--5------|------------------------------------| 
A|-----------3--------------3-----------5br--3--0--------7--6-|-5b-----7--6--5b----7--6--5b -------| 
E|--0--3--5-----5--3--5-5B-----0--3--5------------------------|-------------------------------0-3-5| 

Solo 2 (início igual refrão)
E|---------------------|----------------------------------------------------10-10-------| 
B|---------------------|------------8b--10HA-x--10HA-x--10HA-x-10HA-x----10b------------| 
G|-5br-----------------|-7br--5---------------------------------------------------------| 
D|------7b-----5--7----|---------5------------------------------------------------------| 
A|----------7----------|----------------------------------------------------------------| 
E|---------------------|----------------------------------------------------------------| 

E|-8---7------------------------|--------------------------|-------------------------------| 
B|---10--10-8---8---------5-----|--------------------------|------------------------8br----| 
G|------------9---9/7h5-----7br-|-5-7--x6---7-6---------7b-|-7h6---------7br--5-7h5--------| 
D|----------------------7-------|---------7-----7-7---7----|-----6---5-7-------------------| 
A|------------------------------|-------------------7------|-------7-----------------------| 
E|------------------------------|--------------------------|-------------------------------| 

E|------------------------|--------------------------|-8b--8-7--5---5--|---------------------0-8--| 
B|------------------------|-----------8b--8--5-------|------------8----|--10b--8-10x-10x--10------| 
G|----------5-------------|-7br--5-------------8-7b--|-----------------|-----------------------| 
D|----5--7-----7----5--7--|--------7-----------------|-----------------|-----------------------| 
A|-7-------------7--------|--------------------------|-----------------|-----------------------| 
E|------------------------|--------------------------|-----------------|-----------------------| 

E|------------------------------------------------------|-----------------------------| 
B|-10x-8x-10x-10h8--------------------------------------|-----------------------------| 
G|------------------9-8/7--------9-7b--5----7--5-----7b-|-----------------------------| 
D|-------------------------10--7---------7---------7----|------MAIS DEVAGAR---------| 
A|------------------------------------------------------|--------3--------------------| 
E|------------------------------------------------------|-0-3-5-----5---5--3----5--0--| 

E|-------------|---------------------------|-10b-----------------------------------| 
B|--8----------|--10-9/10------------------|-------10h8---8------------------------| 
G|--7----------|----------9/7---2--5--2-2--|------------9---9h8/7----7-0-5br-------| 
D|--6----------|---7-5/9----------------2--|----------------------10---------------| 
A|--7----------|----------7/5---0--3--0-0--|---------------------------------------| 
E|-------------|---------------------------|---------------------------------------|

Composição de Ian Gillan / Ian Paice / Jon Lord / Ritchie Blackmore / Roger Glover
Colaboração e revisão:
  • Alvaro Ferreira
262 exibições
    • ½ Tom
    • A
    • Bb
    • B
    • C
    • Db
    • D
    • Eb
    • E
    • F
    • F#
    • G
    • Ab
  • Adicionar à lista

    0 comentários

    Ver todos os comentários

    Conseguiu tocar?

    0 Tocaram 0 Ainda não

    Grave um vídeo tocando Nobody's home e nos envie!

    00:00 / 00:00
    Outros vídeos desta música
    Repetir Qualidade Automático
    Outros vídeos desta música
    00:00 / 00:00
    Automático

    Cifra Club Pro

    Aproveite o Cifra Club com benefícios exclusivos e sem anúncios
    Cifra Club Pro
    Aproveite o Cifra Club com benefícios exclusivos e sem anúncios
    OK