Cifra Club

Perfect Strangers

Deep Purple

Cifra: Principal (violão e guitarra)
Tom: C
Introdução: C5  D5  C5  D5  F5  G5


Primeira Estrofe:

C5  D5
       Can you remember 
          C5  D5  F5  G5
Remember my  name
                       C5  D5
As I flow through your    life
                  C5  D5    F5  G5
A thousand oceans I  have flown


Segunda Estrofe:

(Guitarra Base)

   G5  A5
E|----------------------------------5-------|
B|----------------------------------5-------|
G|-----------------------5------------------|
D|-5/7---------------5h7-5-7-5-7------------|
A|-5/7---------------5h7---7-5-7------------|
E|-3/5---------------------------5----------|

E|----------------5-------------------------|
B|----------------5-------------------------|
G|-----5------------------------------------|  (2x)
D|-5h7-5-7-5-7------------------------------|
A|-5h7---7-5-7------------------------------|
E|-------------5----------------------------|

(Guitarra Riff)

E|------------------------------------------|
B|------------------------------------------|
G|-----2-----0------------------------------|  (4x)
D|---2----------2---------------------------|
A|-0------0---------------------------------|
E|------------------------------------------|

     G5  A5
And cold    spirits of ice

All my life

I am the echo of your past


C5  D5  C5  D5  F5  G5


Terceira Estrofe:

C5  D5
       I am returning 
               C5   D5  F5  G5
The echo of a point in time
                C5  D5
Distant faces shine
                    C5  D5    F5  G5
A thousand warriors I  have known


Quarta Estrofe:

(Guitarra Base)

E|----------------------------------5-------|
B|----------------------------------5-------|
G|-----------------------5------------------|
D|-5/7---------------5h7-5-7-5-7------------|
A|-5/7---------------5h7---7-5-7------------|
E|-3/5---------------------------5----------|

E|----------------5-------------------------|
B|----------------5-------------------------|
G|-----5------------------------------------|  (2x)
D|-5h7-5-7-5-7------------------------------|
A|-5h7---7-5-7------------------------------|
E|-------------5----------------------------|

(Guitarra Riff)

E|------------------------------------------|
B|------------------------------------------|
G|-----2-----0------------------------------|  (4x)
D|---2----------2---------------------------|
A|-0------0---------------------------------|
E|------------------------------------------|

     G5  A5
And laughing 

As the spirits appear

All your life

Shadows of another day

E|-------5--------------------------------------------|
B|-----5---5-8p5---5----------------------------------|
G|-7b9-----------7---7-5-7p5h7p5h7p5------------------|
D|-----------------------------------7p5-7p5----------|
A|-------------------------------------------8~-------|
E|----------------------------------------------------|


Primeiro Refrão:

   F5          C5          D5                G5
E|----------------------------------------------3-3-3-|
B|-------------8-----------------5h6p5--------------3-|
G|--------10------9------------7-------7--5--4--------|
D|-7--10-------------10------7------------------------|
A|-------------------------5--------------------------|
E|----------------------------------------------------|

   D5
E|---------5h6p5h6p...--------------------------------|
B|-------6-------------6------------------------------|
G|-----7-----------------5----------------------------|
D|---7---------------------5--------------------------|
A|-5--------------------------------------------------|
E|----------------------------------------------------|

   G
E|----------------------------------------------------|
B|-3------3------3------3------3------3------3------3-|
G|-4------4------4------4------4------4------4------4-|
D|-5--x-x-5--x-x-5--x-x-5--x-x-5--x-x-5--x-x-5--x-x-5-|
A|----------------------------------------------------|
E|----------------------------------------------------|

       Gm
E|----------------------------------------------------|
B|-----3------3------3------3------3------3------3----|
G|-----3------3------3------3------3------3------3----|
D|-x-x-5--x-x-5--x-x-5--x-x-5--x-x-5--x-x-5--x-x-5----|
A|----------------------------------------------------|
E|----------------------------------------------------|

E|----------------------------------------------------|
B|-----3----------------------------------------------|
G|-----3----------------------------------------------|
D|-x-x-5--x-x-----------------------------------------|
A|----------------------------------------------------|
E|----------------------------------------------------|

F5  C5
       And if you hear me 
        D5
Talking on the wind
              G5
You've got to understand
           D5
We must remain
           C5     G  Gm
Perfect Strangers


Interlúdio 1:

(Parte 1 - 3x)

E|----------------------------------------------------|
B|----------------------------------------------------|
G|----------------------------------------------------|
D|----------------------------------------------------|
A|-0--12-12-12--0--13-13-13--10-10-10--0--------------|
E|----------------------------------------------------|

E|----------------------------------------------------|
B|----------------------------------------------------|
G|----------------------------------------------------|
D|----------------------------------------------------|
A|-12-12-12--8-8-8--12-12-12--10-10-10--10------------|
E|----------------------------------------------------|

(Parte 2)

E|----------------------------------------------------|
B|----------------------------------------------------|
G|----------------------------------------------------|
D|----------------------------------------------------|
A|-0--12-12-12--0--13-13-13--10-10-10--0--------------|
E|----------------------------------------------------|


E|----------------------------------------------------|
B|----------------------------------------------------|
G|----------------------------------------------------|
D|----------------------------------------------------|
A|-12-12-12--8-8-8--12-12-12--10-10-10--8-8-8--7-7-7--|
E|----------------------------------------------------|

E|----------------------------------------------------|
B|----------------------------------------------------|
G|----------------------------------------------------|
D|----------------------------------------------------|
A|-5-5-5--3-3-3--1-1----------------------------------|
E|----------------------------------------------------|

I know I must remain inside this silent
well of sorrow


C5  D5  C5  D5  F5  G5


Quinta Estrofe:

C5  D5
       A strand of silver 
           C5     D5  F5  G5
Hanging through the sky
                        C5  D5
Touching more than you see
                  C5  D5   F5  G5
The voice of ages in your mind


Sexta Estrofe:

(Guitarra Base)

E|----------------------------------5-------|
B|----------------------------------5-------|
G|-----------------------5------------------|
D|-5/7---------------5h7-5-7-5-7------------|
A|-5/7---------------5h7---7-5-7------------|
E|-3/5---------------------------5----------|

E|----------------5-------------------------|
B|----------------5-------------------------|
G|-----5------------------------------------|  (2x)
D|-5h7-5-7-5-7------------------------------|
A|-5h7---7-5-7------------------------------|
E|-------------5----------------------------|

(Guitarra Riff)

E|------------------------------------------|
B|------------------------------------------|
G|-----2-----0------------------------------|  (4x)
D|---2----------2---------------------------|
A|-0------0---------------------------------|
E|------------------------------------------|

   G5     A5
Is aching 

With the dead of the night

Precious life 

Your tears are lost in falling rain


Segundo Refrão:

                   F5           C5
E|-8b10r8--7h8p7p5--------5---------------------------|
B|--------------------------6---8--5------------------|
G|-------------------5--------5-------5---------------|
D|-----------------7----------------------------------|
A|----------------------------------------------------|
E|----------------------------------------------------|

   D5              G5
E|----------------------------------------------------|
B|----------17h18p17----------------------------------|
G|-------19----------19--19~--------------------------|
D|----19----------------------------------------------|
A|-17-------------------------------------------------|
E|----------------------------------------------------|

   D5            C5
E|----------------------------------------------------|
B|-------5h6p5----------------------------------------|
G|-----7-------7b9~-----------------------------------|
D|---7------------------------------------------------|
A|-5--------------------------------------------------|
E|----------------------------------------------------|

   G
E|----------------------------------------------------|
B|-3------3------3------3------3------3------3------3-|
G|-4------4------4------4------4------4------4------4-|
D|-5--x-x-5--x-x-5--x-x-5--x-x-5--x-x-5--x-x-5--x-x-5-|
A|----------------------------------------------------|
E|----------------------------------------------------|

   Gm
E|-6b8r6-5-6-5h6p5p3----------------------------------|
B|-------------------6p4p3----------------------------|
G|-------------------------5p3------------------------|
D|-----------------------------5~~--------------------|
A|----------------------------------------------------|
E|----------------------------------------------------|

F5  C5
       And if you hear me 
        D5
Talking on the wind
              G5
You've got to understand
         D5
We must remain
           C5     G  Gm
Perfect Strangers


Interlúdio 2: 

(Parte 1 - 3x)

E|----------------------------------------------------|
B|----------------------------------------------------|
G|----------------------------------------------------|
D|----------------------------------------------------|
A|----------------------------------------------------|
E|-0--12-12-12--0--13-13-13--10-10-10--0--------------|

E|----------------------------------------------------|
B|----------------------------------------------------|
G|----------------------------------------------------|
D|----------------------------------------------------|
A|----------------------------------------------------|
E|-12-12-12--8-8-8--12-12-12--10-10-10--10------------|


(Parte 2)

E|----------------------------------------------------|
B|----------------------------------------------------|
G|----------------------------------------------------|
D|----------------------------------------------------|
A|----------------------------------------------------|
E|-0--12-12-12--0--13-13-13--10-10-10--0--------------|

E|----------------------------------------------------|
B|----------------------------------------------------|
G|----------------------------------------------------|
D|----------------------------------------------------|
A|----------------------------------------------------|
E|-12-12-12--8-8-8--12-12-12--10-10-10--8-8-8--7-7-7--|

E|----------------------------------------------------|
B|----------------------------------------------------|
G|----------------------------------------------------|
D|----------------------------------------------------|
A|----------------------------------------------------|
E|-5-5-5--3-3-3--1------------------------------------|

(Parte 3 – Até o final)

E|----------------------------------------------------|
B|----------------------------------------------------|
G|----------------------------------------------------|
D|----------------------------------------------------|
A|----------------------------------------------------|
E|-0--12-12-12--0--13-13-13--10-10-10--0--------------|

E|----------------------------------------------------|
B|----------------------------------------------------|
G|----------------------------------------------------|
D|----------------------------------------------------|
A|----------------------------------------------------|
E|-12-12-12--8-8-8--12-12-12--10-10-10--10------------|
exibições 162.975
Acordes para:
    Composição: Ian Gillan / Ritchie Blackmore / Roger Glover Colaboração e revisão:
    • Március
    • Filipe Barrientos

    0 comentários

    mostrar mais comentários

    Conseguiu tocar?

    17 tocaram 0 ainda não

    Grave um vídeo tocando Perfect Strangers e mande pra gente!

    00:00 / 00:00
    outros vídeos desta música
    repetir qualidade Automático
    Outros vídeos desta música
    00:00 / 00:00
    Automático
    Capítulos
    • Tocando a Música
    • Dicas Iniciais / Equipamentos
    • Configuração do Amplificador
    • Acordes da Introdução e Primeira Estrofe
    • Tocando a Introdução e Primeira Estrofe
    • Ensinando o Ritmo da Intro e Primeira Estrofe
    • Acorde da Segunda Estrofe
    • Tocando a Segunda Estrofe
    • Ensinando a Segunda Estrofe - Guitarra Base
    • Ensinando a Segunda Estrofe - Riff Clean
    • Acordes e Dicas para o Refrão
    • Tocando Terceira e Quarta Estrofe e Refrão
    • Ensinando o Ritmo do Refrão
    • Ensinando Passagem para o Refrão
    • Refrão - Parte 1 de 2 (Guitarra Solo)
    • Refrão - Parte 2 de 2 (Guitarra Solo)
    • Dicas para o Interlúdio 1
    • Tocando o Interlúdio 1
    • Interlúdio - Parte 1 de 2
    • Interlúdio - Parte 2 de 2
    • Tocando Quinta e Sexta Estrofes e Segundo Refrão
    • Segundo Refrão - Parte 1 de 2 (Guitarra Solo)
    • Segundo Refrão - Parte 2 de 2 (Guitarra Solo)
    • Tocando Interlúdio 2
    • Interlúdio 2 - Parte 1 de 3
    • Interlúdio 2 - Parte 2 de 3
    • Interlúdio 2 - Parte 3 de 3
    • Encerramento
    • Ficha Técnica
    OK