Cifra Club

Aprenda

Perfect Strangers

Deep Purple

Cifra: Versão 2 (violão e guitarra)
tom: C
  C5  D5            C5 D5 F5 G5
E|---------------------------------|
B|------------------------6/8--8---|
G|--5/7--7-----------5/7--5/7--7---|
D|--5/7--7-----------5/7--3/5--5---|
A|--3/5--5-----------3/5-----------|
E|---------------------------------| 

E|---------------------------------|
B|---------------------------------|
G|--5/7--7-----------5/7-----------|
D|--5/7--7-----------5/7--3/5--5---|
A|--3/5--5-----------3/5--3/5--5---|
E|------------------------1/3--3---| 

Can you remember remember my name
As I flow through your life
A thousand oceans I have flown

   G5 A5   . .   .
E|------------------------|
B|------------------------|
G|------------------------|
D|--5/7--7-----5----------|
A|--5/7------------7------|
E|--3/5----5-5---5---5-5--| 

E|------------------------|
B|------10------8---------|
G|------------9-----9-----|
D|--5/7----7------7---7-7-|
A|------------------------|
E|------------------------| 

And cold spirits of ice
                . .             . .
E|------------------------------------|
B|------------------------------------|
G|------------------------------------|
D|------------------7-----5-----------|
A|------3---------------------7-------|
E|--3-5---5-3-5-5-5---5-5---5---5-5---| 

E|------------------------------------|
B|------------------10-----8----------|
G|------5----------------9-----9------|
D|--5-7---7-5-7-7-7----7-----7----7-7-|
A|------------------------------------|
E|------------------------------------| 

All my life
                . .            . . . . . . . .
E|------------------------------------------------|
B|------------------------------------------------|
G|------------------------------------------------|
D|------------------7-----5-----------------------|
A|------3-------------------7--7-7-7-7-7-7-7-7----|
E|--3-5---5-3-5-5-5---5-5------5-5-5-5-5-5-5-5----| 
                                  
E|------------------------------------------------|
B|------------------10-----8----------------------|
G|------5----------------9-----9------------------|
D|--5-7---7-5-7-7-7----7-----7----7-7-7-7-7-7-7-7-|
A|------------------------------------------------|
E|------------------------------------------------| 

I am the echo of your past

  C5  D5            C5 D5 F5 G5  
E|---------------------------------|
B|------------------------6/8--8---|
G|--5/7--7-----------5/7--5/7--7---|
D|--5/7--7-----------5/7--3/5--5---|
A|--3/5--5-----------3/5-----------|
E|---------------------------------| 

E|---------------------------------|
B|---------------------------------|
G|--5/7--7-----------5/7-----------|
D|--5/7--7-----------5/7--3/5--5---|
A|--3/5--5-----------3/5--3/5--5---|
E|------------------------1/3--3---| 

I am returning the echo of a point in time
Distant faces shine
A thousand warriors I have known

   G5 A5   . .   .
E|------------------------|
B|------------------------|
G|------------------------|
D|--5/7--7-----5----------|
A|--5/7------------7------|
E|--3/5----5-5---5---5-5--| 

E|------------------------|
B|------10------8---------|
G|------------9-----9-----|
D|--5/7----7------7---7-7-|
A|------------------------|
E|------------------------| 

And laughing as the spirits appear
                . .             . .
E|------------------------------------|
B|------------------------------------|
G|------------------------------------|
D|------------------7-----5-----------|
A|------3---------------------7-------|
E|--3-5---5-3-5-5-5---5-5---5---5-5---| 

E|------------------------------------|
B|------------------10-----8----------|
G|------5----------------9-----9------|
D|--5-7---7-5-7-7-7----7-----7----7-7-|
A|------------------------------------|
E|------------------------------------| 

All your life
                . .            . . . . . . . .
E|------------------------------------------------|
B|------------------------------------------------|
G|------------------------------------------------|
D|------------------7-----5-----------------------|
A|------3-------------------7--7-7-7-7-7-7-7-7----|
E|--3-5---5-3-5-5-5---5-5------5-5-5-5-5-5-5-5----| 
                                  
E|------------------------------------------------------------|
B|------------------10-----8----------------------------------|
G|------5----------------9-----9----------5h7---5h7-----------|
D|--5-7---7-5-7-7-7----7-----7----7-7-7-7-----7-----7-5h7p5-3-|
A|------------------------------------------------------------|
E|------------------------------------------------------------| 

Shadows of another day

Refrão

    F            C            Dm           G            Dm           C
E|-------------------------------------------------------------------------------|
B|-------------------------------------------------------------------------------|
G|--2--2-2--2-2--5--5-5--5-5--7--7-7--7-7---------------7--7-7--7-7--5--5-5--5-5-|
D|--3--3-3--3-3--5--5-5--5-5--7--7-7--7-7--5--5-5--5-5--7--7-7--7-7--5--5-5--5-5-|
A|--3--3-3--3-3--3--3-3--3-3--5--5-5--5-5--5--5-5--5-5--5--5-5--5-5--3--3-3--3-3-|
E|--1--1-1--1-1----------------------------3--3-3--3-3---------------------------| 
                                  
And if you hear me talking on the wind
You've got to understand
We must remain
Perfect Strangers

    G           G           Gm          Gm
E|---------------------------------------------------|
B|---------------------------------------------------|
G|--4-----------4-----------3-----------3------------|
D|--5-----------5-----------5-----------5------------|
A|--5-----------5-----------5-----------5------------|
E|--3-----------3-----------3-----------3------------| 

E|---------------------------------------------------|
B|--12-12-12-12-12-12-12-12-11-11-11-11-11-11-11-11--|
G|--12-12-12-12-12-12-12-12-12-12-12-12-12-12-12-12--|
D|---------------------------------------------------|
A|--10-10-10-10-10-10-10-10-10-10-10-10-10-10-10-10--|
E|---------------------------------------------------| 

E|-----------------------------------------------------------|
B|-----------------------------------------------------------|
G|-----9-9---101010--7-7-7-----9-9-9---------9-9-9--7-7-7--7-|  3x
D|-----7-7----8-8-8--5-5-5-----7-7-7-101010--7-7-7--5-5-5--5-|
A|--0-------0---------------0---------8-8-8------------------|
E|-----------------------------------------------------------| 

E|---------------------------------------------------------------------------------------|
B|---------------------------------------------------------------------------------------|
G|-----9-9---101010--7-7-7-----9-9-9---------9-9-9--7-7-7--------------------------------|  
D|-----7-7----8-8-8--5-5-5-----7-7-7---------7-7-7--5-5-5-101010--9-9-9--7-7-7--5-5-5--3-|
A|--0-------0---------------0---------8-8-8----------------8-8-8--7-7-7--5-5-5--3-3-3--1-|
E|---------------------------------------------------------------------------------------| 

I know I must remain inside this silent
well of sorrow

  C5  D5            C5 D5 F5 G5  
E|---------------------------------|
B|------------------------6/8--8---|
G|--5/7--7-----------5/7--5/7--7---|
D|--5/7--7-----------5/7--3/5--5---|
A|--3/5--5-----------3/5-----------|
E|---------------------------------| 

E|---------------------------------|
B|---------------------------------|
G|--5/7--7-----------5/7-----------|
D|--5/7--7-----------5/7--3/5--5---|
A|--3/5--5-----------3/5--3/5--5---|
E|------------------------1/3--3---| 

A strand of silver hanging through the
sky
Touching more than you see
The voice of ages in your mind

   G5 A5   . .   .
E|------------------------|
B|------------------------|
G|------------------------|
D|--5/7--7-----5----------|
A|--5/7------------7------|
E|--3/5----5-5---5---5-5--| 

E|------------------------|
B|------10------8---------|
G|------------9-----9-----|
D|--5/7----7------7---7-7-|
A|------------------------|
E|------------------------| 

Is aching with the dead of the night
                . .             . .
E|------------------------------------|
B|------------------------------------|
G|------------------------------------|
D|------------------7-----5-----------|
A|------3---------------------7-------|
E|--3-5---5-3-5-5-5---5-5---5---5-5---| 

E|------------------------------------|
B|------------------10-----8----------|
G|------5----------------9-----9------|
D|--5-7---7-5-7-7-7----7-----7----7-7-|
A|------------------------------------|
E|------------------------------------| 

hooooooooooo
                . .            . . . . . . . .
E|------------------------------------------------|
B|------------------------------------------------|
G|------------------------------------------------|
D|------------------7-----5-----------------------|
A|------3-------------------7--7-7-7-7-7-7-7-7----|
E|--3-5---5-3-5-5-5---5-5------5-5-5-5-5-5-5-5----| 
                                  
E|------------------------------------------------------------|
B|------------------10-----8----------------------------------|
G|------5----------------9-----9----------5h7---5h7-----------|
D|--5-7---7-5-7-7-7----7-----7----7-7-7-7-----7-----7-5h7p5-3-|
A|------------------------------------------------------------|
E|------------------------------------------------------------| 

Precious life (your tears are lost in
falling rain)

Refrão

    F            C            Dm           G            Dm           C
E|-------------------------------------------------------------------------------|
B|-------------------------------------------------------------------------------|
G|--2--2-2--2-2--5--5-5--5-5--7--7-7--7-7---------------7--7-7--7-7--5--5-5--5-5-|
D|--3--3-3--3-3--5--5-5--5-5--7--7-7--7-7--5--5-5--5-5--7--7-7--7-7--5--5-5--5-5-|
A|--3--3-3--3-3--3--3-3--3-3--5--5-5--5-5--5--5-5--5-5--5--5-5--5-5--3--3-3--3-3-|
E|--1--1-1--1-1----------------------------3--3-3--3-3---------------------------| 
                                  
And if you hear me talking on the wind
You've got to understand
We must remain
Perfect Strangers

    G           G           Gm          Gm
E|---------------------------------------------------|
B|---------------------------------------------------|
G|--4-----------4-----------3-----------3------------|
D|--5-----------5-----------5-----------5------------|
A|--5-----------5-----------5-----------5------------|
E|--3-----------3-----------3-----------3------------| 

E|---------------------------------------------------|
B|--12-12-12-12-12-12-12-12-11-11-11-11-11-11-11-11--|
G|--12-12-12-12-12-12-12-12-12-12-12-12-12-12-12-12--|
D|---------------------------------------------------|
A|--10-10-10-10-10-10-10-10-10-10-10-10-10-10-10-10--|
E|---------------------------------------------------| 

E|-----------------------------------------------------------|
B|-----------------------------------------------------------|
G|-----------------------------------------------------------|  3x
D|-----9-9---101010--7-7-7-----9-9-9---------9-9-9--7-7-7--7-|
A|-----7-7----8-8-8--5-5-5-----7-7-7-101010--7-7-7--5-5-5--5-|
E|--0-------0---------------0---------8-8-8------------------| 

E|---------------------------------------------------------------------------------------|
B|---------------------------------------------------------------------------------------|
G|---------------------------------------------------------------------------------------|  
D|-----9-9---101010--7-7-7-----9-9-9---------9-9-9--7-7-7--------------------------------|
A|-----7-7----8-8-8--5-5-5-----7-7-7-101010--7-7-7--5-5-5-101010--9-9-9--7-7-7--5-5-5--3-|
E|--0-------0---------------0---------8-8-8----------------8-8-8--7-7-7--5-5-5--3-3-3--1-| 

E|-----------------------------------------------------------|
B|-----------------------------------------------------------|
G|-----------------------------------------------------------|  
D|-----9-9---101010--7-7-7-----9-9-9---------9-9-9--7-7-7--7-|
A|-----7-7----8-8-8--5-5-5-----7-7-7-101010--7-7-7--5-5-5--5-|
E|--0-------0---------------0---------8-8-8------------------|
Composição de Ian Gillan / Ritchie Blackmore / Roger Glover
Colaboração e revisão:
  • Diego Mota
24.004 exibições
    • ½ Tom
    • A
    • Bb
    • B
    • C
    • Db
    • D
    • Eb
    • E
    • F
    • F#
    • G
    • Ab
  • Adicionar à lista

    0 comentários

    Ver todos os comentários

    Conseguiu tocar?

    0 Tocaram 0 Ainda não

    Grave um vídeo tocando Perfect Strangers e nos envie!

    00:00 / 00:00
    Outros vídeos desta música
    Repetir Qualidade Automático
    Outros vídeos desta música
    00:00 / 00:00
    Automático
    Capítulos
    • Tocando a Música
    • Dicas Iniciais / Equipamentos
    • Configuração do Amplificador
    • Acordes da Introdução e Primeira Estrofe
    • Tocando a Introdução e Primeira Estrofe
    • Ensinando o Ritmo da Intro e Primeira Estrofe
    • Acorde da Segunda Estrofe
    • Tocando a Segunda Estrofe
    • Ensinando a Segunda Estrofe - Guitarra Base
    • Ensinando a Segunda Estrofe - Riff Clean
    • Acordes e Dicas para o Refrão
    • Tocando Terceira e Quarta Estrofe e Refrão
    • Ensinando o Ritmo do Refrão
    • Ensinando Passagem para o Refrão
    • Refrão - Parte 1 de 2 (Guitarra Solo)
    • Refrão - Parte 2 de 2 (Guitarra Solo)
    • Dicas para o Interlúdio 1
    • Tocando o Interlúdio 1
    • Interlúdio - Parte 1 de 2
    • Interlúdio - Parte 2 de 2
    • Tocando Quinta e Sexta Estrofes e Segundo Refrão
    • Segundo Refrão - Parte 1 de 2 (Guitarra Solo)
    • Segundo Refrão - Parte 2 de 2 (Guitarra Solo)
    • Tocando Interlúdio 2
    • Interlúdio 2 - Parte 1 de 3
    • Interlúdio 2 - Parte 2 de 3
    • Interlúdio 2 - Parte 3 de 3
    • Encerramento
    • Ficha Técnica

    Cifra Club Pro

    Aproveite o Cifra Club com benefícios exclusivos e sem anúncios
    Cifra Club Pro
    Aproveite o Cifra Club com benefícios exclusivos e sem anúncios
    OK