Cifra Club

Aprenda

Stormbringer

Deep Purple

Cifra: Principal (violão e guitarra)
Tom: G
Intro: Em7  Bm7  Em7  Bm7 A5  G

Riff 1 2x:
E|-------------------------------------
B|-------------------------------------
G|-------------------------------------
D|--5----------------------------------
A|----7-7-7-5-7-7---5-7-7---5-7-7------
E|----------------0-------0-------0----

E|-------------------------------------
B|-------------------------------------
G|-------------------------------------
D|-5-----------------------------------
A|---7-7-7-5-7-7---5-------------------
E|---------------0---7-6-5-5-3---------

 (Riff 1 )
Comin' out of nowhere
Drivin' like rain
Stormbringer dance
On the thunder again
 (Riff 1)
Dark cloud gathering
Breaking the day
No point running
'Cause it's coming your way

Refrão:
E5          G
  Ride the rainbow
  C         B
Crack the sky

Solo 1:
E|-------------------------------------------------------------12-15b17-|
B|--------15--------15--------15-------------------------12-15----------|
G|-14b16-----14b16-----14b16-----14b16r14-12-14-12-14-12----------------|
D|----------------------------------------------------------------------|
A|----------------------------------------------------------------------|
E|----------------------------------------------------------------------|

  E5          G    D5  A5
Stormbringer coming
 B5
Time to die
Got to keep running
Stormbringer coming
 D5
He's got nothing you need
 C5
He's gonna make you bleed

(Riff 1 - 2x)

 (Riff 1)
Rainbow shaker
On a stallion twister
Bareback rider
On the eye of the sky
  (Riff 1)
Stormbringer coming down
Meaning to stay
Thunder and lightning
Heading your way

(Refrão)

(Intro)

(Solo)

(Riff 1 - 2x)

(Riff 1)
Coming out of nowhere
Drivin' like a-rain
Stormbringer dance
On the thunder again
(Riff 1)
Dark cloud gathering
Breaking the day
No point running
'Cause it's coming your way
Composição de David Coverdale / Ritchie Blackmore
Colaboração e revisão:
  • Guilherme
11.188 exibições
    • ½ Tom
    • A
    • Bb
    • B
    • C
    • Db
    • D
    • Eb
    • E
    • F
    • F#
    • G
    • Ab
  • Adicionar à lista

    0 comentários

    Mostrar mais comentários

    Conseguiu tocar?

    1 Tocaram 0 Ainda não

    Grave um vídeo tocando Stormbringer e mande pra gente!

    00:00 / 00:00
    outros vídeos desta música
    repetir qualidade Automático
    Outros vídeos desta música
    00:00 / 00:00
    Automático
    OK