Cifra Club

Aprenda

Stormbringer

Deep Purple

Tab de baixo: Principal
|---------------------|-----|--4--4--4--2---4-----|-----|
|--2--2--2--0---2-----|-----|---------------------|-----|
|---------------------|-----|------------------2--|--2--|
|------------------0--|--0--|---------------------|-----|

|---------------------|-----|--4--4--4--2---4-----|---------|
|--2--2--2--0---2-----|-----|---------------------|---------|
|---------------------|-----|------------------2--|--0------|
|------------------0--|--0--|---------------------|------3--|

|--0-----------------------|--------------------------|--0-----------------------|-----------------|
|-----2--2-----0--2--2-----|--0--2--2-----0--2--2-----|-----2--2-----0--2--2-----|--0--------------|
|--------------------------|--------------------------|--------------------------|-----2--1--0-----|
|-----------0-----------0--|-----------0-----------0--|-----------0-----------0--|--------------3--|

|--0-----------------------|--------------------------|--0-----------------------|-----------------|
|-----2--2-----0--2--2-----|--0--2--2-----0--2--2-----|-----2--2-----0--2--2-----|--0--------------|
|--------------------------|--------------------------|--------------------------|-----2--1--0-----|
|-----------0-----------0--|-----------0-----------0--|-----------0-----------0--|--------------3--|

   coming out...              driving...                 stormbringer...
   rainbow...                 stallion...                bareback...
|--0-----------------------|--------------------------|--0-----------------------|
|*----2--2-----0--2--2-----|--0--2--2-----0--2--2-----|-----2--2-----0--2--2-----|
|*-------------------------|--------------------------|--------------------------|
|-----------0-----------0--|-----------0-----------0--|-----------0-----------0--|

   thunder...        dark...                    breaking...                no point...
   eye of...         stormbringer...            meaning...                 thunder...
|-----------------|--0-----------------------|--------------------------|--0-----------------------|PARA
|--0--------------|-----2--2-----0--2--2-----|--0--2--2-----0--2--2-----|-----2--2-----0--2--2-----|O CODA 2
|-----2--1--0-----|--------------------------|--------------------------|--------------------------|
|--------------3--|-----------0-----------0--|-----------0-----------0--|-----------0-----------0--|

   coming...           ride...                              crack...
   heading...
|-----------------|---------------|------------------|----------------------|----------------------|
|--0--------------|---------------|------------------|----------------0-----|----------------------|
|-----2--1--0-----|---------------|------------0--2--|--3---3--3--3------3--|--2---2--2--2---------|
|--------------3--|--0-----2---3--|--3--3--3---------|----------------------|----------------3--2--|

 1__________
|----------------------|------------------|----------------------|----------------------|
|------------2---1--0--|--0--0--0---2--0--|----------------------|----------------------|
|----------------------|------------------|--3---3-----3---3--3--|--2---2--2--2---2--2--|
|--0---0--0------------|------------------|---------3------------|----------------------|

                          coming                                       time to die
|----------------------|------------------|---------------------|------------2---0-----|
|----------------------|------------------|--0-----0--0---0--0--|-------------------2--|
|----------------------|------------0--2--|---------------------|--0---0--0------------|
|--0---0--0--0---2--3--|--3--3--3---------|---------------------|----------------------|

|--------------------------|--------------------------|--------------------------|--------------------------|
|--------------0-----------|--------------------------|--------------------------|--------------------------|
|--0--2--2--2-----2--2--2--|--0--2--2--2--0--2--2--2--|--0--2--2--2--0--2--2--2--|--0--2--2--2--0--2--2--2--|
|--------------------------|--------------------------|--------------------------|--------------------------|

CODA 1
   got to keep running                                   stormbringer coming
|--------------------------|--------------------------|--------------------------|
|--------------0-----------|--------------------------|--------------0-----------|
|--0--2--2--2-----2--2--2--|--0--2--2--2--0--2--2--2--|--0--2--2--2-----2--2--2--|
|--------------------------|--------------------------|--------------------------|

                                       nothing you need
|--------------------------|--------|--------------------|--------|-----|-----|PARA O CODA
|--------------------0-----|--2--0--|--0-----------------|--0-----|-----|-----| 1
|--0--2--2--2--0--0-----2--|--------|-----0---3---0------|-----3--|--3--|--3--|
|--------------------------|--------|--------------------|--------|-----|-----|

|--0-----------------------|--0-----------------------|--0-----------------------|-----------------|
|-----2--2-----0--2--2-----|-----2--2-----0--2--2-----|-----2--2-----0--2--2-----|--0--------------|
|--------------------------|--------------------------|--------------------------|-----2--1--0-----|
|-----------0-----------0--|-----------0-----------0--|-----------0-----------0--|--------------3--|

|--0-----------------------|--0-----------------------|--0-----------------------|-----------------|
|-----2--2-----0--2--2-----|-----2--2-----0--2--2-----|-----2--2-----0--2--2-----|--0--------------|
|--------------------------|--------------------------|--------------------------|-----2--1--0-----|
|-----------0-----------0--|-----------0-----------0--|-----------0-----------0--|--------------3--|

 2____________
|----------------------|------------------|----------------------|----------------------|
|------------2---1--0--|--0--0--0---2--0--|----------------------|----------------------|
|----------------------|------------------|--3---3-----3---3--3--|--2---2--2--2---2--2--|
|--0---0--0------------|------------------|---------3------------|----------------------|

                          coming                                           time to die
|----------------------|------------------|-----------------------|--------------2---0-----|
|----------------------|------------------|--0-----0--0-----0--0--|---------------------2--|
|----------------------|------------0--2--|-----------------------|--0-----0--0------------|
|--0---0--0--0---2--3--|--3--3--3---------|-----------------------|------------------------|

|--------------------------|--------------------------|--------------------------|--------------------------|
|--------------0-----------|--------------------------|--------------------------|--------------------------|
|--0--2--2--2-----2--2--2--|--0--2--2--2--0--2--2--2--|--0--2--2--2--0--2--2--2--|--0--2--2--2--0--2--2--2--|
|--------------------------|--------------------------|--------------------------|--------------------------|

CODA 1
|--------------------|-----|--4--4--4--2--4-----|-----|--------------------|-----|
|--2--2--2--0--2-----|-----|--------------------|-----|--2--2--2--0--2-----|-----|
|--------------------|-----|-----------------2--|--2--|--------------------|-----|
|-----------------0--|--0--|--------------------|-----|-----------------0--|--0--|

|--4--4--4--2--4-----|-----------|--0-----------------------|--0-----------------------|
|--------------------|-----------|-----2--2-----0--2--2-----|-----2--2-----0--2--2-----|
|-----------------2--|--0--------|--------------------------|--------------------------|
|--------------------|--------3--|-----------0-----------0--|-----------0-----------0--|

|--0-----------------------|-----------------|
|-----2--2-----0--2--2-----|--0--------------|
|--------------------------|-----2--1--0-----|
|-----------0-----------0--|--------------3--|

|--0-----------------------|--0-----------------------|--0-----------------------|-----------------|
|-----2--2-----0--2--2-----|-----2--2-----0--2--2-----|-----2--2-----0--2--2-----|--0--------------|
|--------------------------|--------------------------|--------------------------|-----2--1--0-----|
|-----------0-----------0--|-----------0-----------0--|-----------0-----------0--|--------------3--|

|--0-----------------------|--0-----------------------|--0-----------------------|-----------------|
|-----2--2-----0--2--2-----|-----2--2-----0--2--2-----|-----2--2-----0--2--2-----|--0--------------|
|--------------------------|--------------------------|--------------------------|-----2--1--0-----|
|-----------0-----------0--|-----------0-----------0--|-----------0-----------0--|--------------3--|

|--0-----------------------|--0-----------------------|--0-----------------------|-----------------|
|-----2--2-----0--2--2-----|-----2--2-----0--2--2-----|-----2--2-----0--2--2-----|--0--------------|
|--------------------------|--------------------------|--------------------------|-----2--1--0-----|
|-----------0-----------0--|-----------0-----------0--|-----------0-----------0--|--------------3--|

|--------------|------------------|----------------------|----------------------|
|--------------|------------------|----------------0-----|----------------------|
|--------------|------------0--2--|--3---3--3--3------3--|--2---2--2--2---------|
|--0-----2--3--|--3--3--3---------|----------------------|----------------3--2--|

|----------------------|------------------|----------------------|----------------------|
|------------2---1--0--|--0--0--0---2--0--|----------------------|----------------------|
|----------------------|------------------|--3---3-----3---3--3--|--2---2--2--2---2--2--|
|--0---0--0------------|------------------|---------3------------|----------------------|

|----------------------|------------------|-------------------|------------2---0-----|
|----------------------|------------------|--0---0--0---0--0--|-------------------2--|
|----------------------|------------0--2--|-------------------|--0---0--0------------|
|--0---0--0--0---2--3--|--3--3--3---------|-------------------|----------------------|

|--------------------------|--------------------------|
|--------------0-----------|--------------------------|
|--0--2--2--2-----2--2--2--|--0--2--2--2--0--2--2--2--|
|--------------------------|--------------------------|

|--------------------------|--------------------------|
|--------------0-----------|--------------------------|
|--0--2--2--2-----2--2--2--|--0--2--2--2--0--2--2--2--|
|--------------------------|--------------------------|

|--------------------------|--------------------------|
|--------------0-----------|--------------------------|
|--0--2--2--2-----2--2--2--|--0--2--2--2--0--2--2--2--|
|--------------------------|--------------------------|

|--------------------------|--4--4--------------------|
|--------------0-----------|--------------------0--2--|
|--0--2--2--2-----2--2--2--|--------2--2--2--4--------|
|--------------------------|--------------------------|

|--0-----------------------|--0-----------------------|--0-----------------------|-----------------|
|-----2--2-----0--2--2-----|-----2--2-----0--2--2-----|-----2--2-----0--2--2-----|--0--------------|
|--------------------------|--------------------------|--------------------------|-----2--1--0-----|
|-----------0-----------0--|-----------0-----------0--|-----------0-----------0--|--------------3--|

|--0-----------------------|--0-----------------------|--0-----------------------|-----------------|
|-----2--2-----0--2--2-----|-----2--2-----0--2--2-----|-----2--2-----0--2--2-----|--0--------------|
|--------------------------|--------------------------|--------------------------|-----2--1--0-----|
|-----------0-----------0--|-----------0-----------0--|-----------0-----------0--|--------------3--|

CODA 2
|-----------------|
|--0--------------|
|-----2--1--0-----|
|--------------3--|

|--0-----------------------|--0-----------------------|--0-----------------------|
|-----2--2-----0--2--2-----|-----2--2-----0--2--2-----|-----2--2-----0--2--2-----|
|--------------------------|--------------------------|--------------------------|
|-----------0-----------0--|-----------0-----------0--|-----------0-----------0--|

|--0-----------------------|--0-----------------------|--0-----------------------|-----|-----|
|-----2--2-----0--2--2-----|-----2--2-----0--2--2-----|-----2--2-----0--2--2-----|-----|-----|
|--------------------------|--------------------------|--------------------------|-----|-----|
|-----------0-----------0--|-----------0-----------0--|-----------0-----------0--|--0--|-----|
Composição de David Coverdale / Ritchie Blackmore
Colaboração e revisão:
  • valdir júnior
1.488 exibições

0 comentários

Mostrar mais comentários

Conseguiu tocar?

0 Tocaram 0 Ainda não

Grave um vídeo tocando Stormbringer e mande pra gente!

00:00 / 00:00
outros vídeos desta música
repetir qualidade Automático
Outros vídeos desta música
00:00 / 00:00
Automático
OK