Cifra Club

Cry

Def Leppard

Cifra: Principal (violão e guitarra)
exibições 872
Tom: F#
Intro

GTR 1

Eb|-----------------------------------------------------------------------------
Bb|-----------------------------------------------------------------------------
Gb|--7----------------7---------------------------------------------------------
Db|-----9----9-9--9------9----9-9--9--------------------------------------------
Ab|-----------------------------------------------------------------------------
Eb|-----------------------------------------------------------------------------
]
]GTR 2
]
Eb|-----------------------------------------------------------------------------
Bb|-----------------------------------------------------------------------------
Gb|---2--2-2--2-2-2-2--2--2-2--2-2-2-2------------------------------------------
Db|---2--2-2--2-2-2-2--2--2-2--2-2-2-2------------------------------------------
Ab|---0--0-0--0-0-0-0--0--0-0--0-0-0-0------------------------------------------
Eb|-----------------------------------------------------------------------------

Both GTRs

Eb|-----------------------------------------------------------------------------
Bb|-----------------------------------------------------------------------------
Gb|--2/4/2/4-7-7-7-7-2-2-0-2--2/4/2/4-7-7-7-7-2-2-0-2---------------------------
Db|--2/4/2/4-7-7-7-7-2-2-0-2--2/4/2/4-7-7-7-7-2-2-0-2---------------------------
Ab|-----------------------------------------------------------------------------
Eb|-----------------------------------------------------------------------------

VERSE

GTR 1
                                                                Repeat once
Eb|-----------------------------------------------------------------------------
Bb|-----------------------------------------------------------------------------
Gb|*-6^7^6^4-------------------2/4/2/4-7-7-7-7-2-2-0-2--2/4/2/4-7-7-7-7-2-2-0-2*
Gb|*---------------x/----------2/4/2/4-7-7-7-7-2-2-0-2--2/4/2/4-7-7-7-7-2-2-0-2*
Ab|----------------x/-----------------------------------------------------------
Eb|----------------x/-----------------------------------------------------------
]
]GTR 2
]
Eb|-----------------------------------------------------------------------------
Bb|-----------------------------------------------------------------------------
Gb|*---------------6^7^6^4-----2/4/2/4-7-7-7-7-2-2-0-2--2/4/2/4-7-7-7-7-2-2-0-2*
Gb|*-x/------------------------2/4/2/4-7-7-7-7-2-2-0-2--2/4/2/4-7-7-7-7-2-2-0-2*
Ab|--x/-------------------------------------------------------------------------
Eb|--x/-------------------------------------------------------------------------

PRe|-CHORUS

Eb|-----------------------------------------------------------------------------
Bb|-----------------------------------------------------------------------------
Gb|--4-----------7--------------------------------------------------------------
Db|--4-----------7--------------------------------------------------------------
Ab|--2-----------5--------------------------------------------------------------
Eb|-----------------------------------------------------------------------------

CHORUS

GTR 1

Eb|--0----------0----0----------0----0----------0-------------------------------
Bb|-----4-----4---4-----4-----4---4-----4-----4---4-----------------------------
Gb|*-------2---------------2---------------2-------------------*----------------
Db|*-------------------------------------------------5-5--5-5--*----------------
Ab|--------------------------------------------------5-5--5-5-------------------
Eb|--------------------------------------------------3-3--3-3-------------------
]
]GTR 2
]
Eb|-----------------------------------------------------------------------------
Bb|-----------------------------------------------------------------------------
Gb|*-----------------------------------------------------------*----------------
Db|*-7--7--7-7-7-----7--7--7-7-7-----7--7--7-7-7-----5-5--5-5--*----------------
Ab|--7--7--7-7-7-----7--7--7-7-7-----7--7--7-7-7-----5-5--5-5-------------------
Eb|--5--5--5-5-5-----5--5--5-5-5-----5--5--5-5-5-----3-3--3-3-------------------

1.

GTR 1

Eb|-----------------------------------------------------------------------------
Bb|-----------------------------------------------------------------------------
Gb|--7----------------7---------------------------------------------------------
Db|-----9----9-9--9------9----9-9--9--------------------------------------------
Ab|-----------------------------------------------------------------------------
Eb|-----------------------------------------------------------------------------
]
]GTR 2
]
Eb|-----------------------------------------------------------------------------
Bb|-----------------------------------------------------------------------------
Gb|---2--2-2--2-2-2-2--2--2-2--2-2-2-2------------------------------------------
Db|---2--2-2--2-2-2-2--2--2-2--2-2-2-2------------------------------------------
Ab|---0--0-0--0-0-0-0--0--0-0--0-0-0-0------------------------------------------
Eb|-----------------------------------------------------------------------------

Both GTRs

Eb|-----------------------------------------------------------------------------
Bb|-----------------------------------------------------------------------------
Gb|--2/4/2/4-7-7-7-7-2-2-0-2--2/4/2/4-7-7-7-7-2-2-0-2---------------------------
Db|--2/4/2/4-7-7-7-7-2-2-0-2--2/4/2/4-7-7-7-7-2-2-0-2---------------------------
Ab|-----------------------------------------------------------------------------
Eb|-----------------------------------------------------------------------------

2.

GTR 1

Eb|------------------------------------
Bb|------------------------------------
Gb|--7----------------7----------------
Db|-----9----9-9--9------9----9-9--9---
Ab|------------------------------------
Eb|------------------------------------
]
]GTR 2
]
Eb|------------------------------------
Bb|------------------------------------
Gb|---2--2-2--2-2-2-2--2--2-2--2-2-2-2-
Db|---2--2-2--2-2-2-2--2--2-2--2-2-2-2-
Ab|---0--0-0--0-0-0-0--0--0-0--0-0-0-0-
Eb|------------------------------------

BOTH GTRs

Eb|---------------------------
Bb|---------------------------
Gb|*-----------------------*--
Db|*----11-12-------11-12--*--
Ab|--12----------12-----------
Eb|---------------------------

SOLO

GTR 1

Eb|-----------------------------------------------------------------------------
Bb|--10-----------------8[10]-------------10/12--------------10/12----------12--
Gb|-----------------------------------------------------------------------------
Db|-----------------------------------------------------------------------------
Ab|-----------------------------------------------------------------------------
Eb|-----------------------------------------------------------------------------
]
]GTR 2
]
Eb|-----------------------------------------------------------------------------
Bb|-----------------------------------------------------------------------------
Gb|--2--2-2--2-2-2-2-2--2--2-2--2-2-2-2-2--4--4-4--4-4-4-4-4--7--7-7--7-7-7-7-7-
Db|--2--2-2--2-2-2-2-2--2--2-2--2-2-2-2-2--4--4-4--4-4-4-4-4--7--7-7--7-7-7-7-7-
Ab|--0--0-0--0-0-0-0-0--0--0-0--0-0-0-0-0--2--2-2--2-2-2-2-2--5--5-5--5-5-5-5-5-
Eb|-----------------------------------------------------------------------------

CODA

Eb|---------------------
Bb|---------------------
Gb|--2--2-2--2-2-2-2-2--
Db|--2--2-2--2-2-2-2-2--
Ab|--0--0-0--0-0-0-0-0--
Eb|---------------------
Acordes para:

    0 comentários

    mostrar mais comentários

    Conseguiu tocar?

    0 tocaram 0 ainda não

    Grave um vídeo tocando Cry e mande pra gente!

    00:00 / 00:00
    outros vídeos desta música
    repetir qualidade Automático
    Outros vídeos desta música
    00:00 / 00:00
    Automático
    OK