Cifra Club

Foolin

Def Leppard

Cifra: Principal (violão e guitarra)
tom: G
Intro: A9  F7M(11+)  A9  F7M(11+)

   A9             F7M(11+)
E|------------------------------0-----------|
B|-------0---------------0----------0-------|
G|-----2---------------4---5------5---------|
D|---2--------2---3-------------------------|
A|-0------------0---------------------------|
E|------------------------------------------|

   A9             F7M(11+)
E|------------------------------0-----------|
B|-------0---------------0--------0---------|
G|-----2---------------4---5--------5-------|
D|---2--------2---3-------------------------|
A|-0------------0---------------------------|
E|------------------------------------------|


Primeira Parte:

 A9       F7M(11+)
Lady luck          never smiles
    A9             F7M(11+)
So lend your love to me awhile
A9            F7M(11+)
   Do with me          what you will
A9                 F7M(11+)
   Break the spell   

Take your fill

A9            F7M(11+)
On and on we rode the storm
A9
   The flame has died 
         F7M(11+)
And the fire has gone
A9                       F7M(11+)
Oh, this empty bed is a night alone
   A9            F7M(11+)
I realized that long ago


Segunda Parte::

   A5                C5  G5
Is anybody out there
A5            G5  F5
Anybody there
     A5             C5  G5
Does anybody wonder
A5    E5   F5  G5  ( G )  A5
Anybody care


Pré-Refrão:

Bb5                C5
Oh, I just gotta know
                   Bb5
If you're really there
                C5
And you really care

Cause baby I'm not

E|------------------------------------------|
B|------------------------------------------|
G|-3---3---2----------3---2-----------------|
D|-3-----3---3----------3---3---------------|
A|-1----------------------------------------|
E|------------------------------------------|

E|------------------------------------------|
B|------------------------------------------|
G|-5---5---4----------5---4-----------------|
D|-5-----5---5----------5---5---------------|
A|-3----------------------------------------|
E|------------------------------------------|

E|------------------------------------------|
B|------------------------------------------|
G|-3---3---2----------3---2-----------------|
D|-3-----3---3----------3---3---------------|
A|-1----------------------------------------|
E|------------------------------------------|

                        P.M . . . . . 
E|------------------------------------------|
B|------------------------------------------|
G|-5---5---4----------5---------------------|
D|-5-----5---5--------5---------------------|
A|-3------------------3-3-3-3-3-3-3-3-------|
E|------------------------------------------|


Primeiro Refrão:

( D5  C5  D5 )

                       F5  Bb5
Foo, foo, foo, foolin'

( D5  C5  D5 )

                     F5  G5
Ah foo, foo, foolin' 

( D5  C5  D5 )

                       F5  Bb5
Foo, foo, foo, foolin'

( D5  C5  D5 )

                     F5  G5  D5
Ah foo, foo, foolin'


Terceira Parte:


Won't you stay with me awhile

( A9  F7M(11+)  A9  F7M(11+) )

  A9                   F7M(11+)
Close your eyes don't run and hide
A9                 F7M(11+)
   Easy love is an easy ride
 A9                   F7M(11+)
Just wakin' up from what we had
        A9                 F7M(11+)
Could stop good love from going bad


Quarta Parte:

   A5                C5  G5
Is anybody out there
A5            G5  F5
Anybody there
     A5             C5  G5
Does anybody wonder
A5    E5   F5  G5  ( G )  A5
Anybody care


Pré-Refrão:

Bb5                C5
Oh, I just gotta know
                   Bb5
If you're really there
                C5
And you really care

Cause baby I'm not


Segundo Refrão:


( D5  C5  D5 )

                       F5  Bb5
Foo, foo, foo, foolin'

( D5  C5  D5 )

                     F5  G5
Ah foo, foo, foolin' 

( D5  C5  D5 )

                       F5  Bb5
Foo, foo, foo, foolin'

( D5  C5  D5 )

                     F5  G5
Ah foo, foo, foolin'


Solo: D5  C5  D5
      F5  Bb5
      D5  C5  D5
      F5  G5

      D5  C5  D5
      F5  Bb5
      D5  C5  D5
      F5  G5

      A5  C5  G5
      A5  G5  F5
      A5  C5  G5
      A5  E5  F5  G5  ( G )  A5

(Parte 1)

E|----------------------------------------------------|
B|----------------------------------------------------|
G|-5-5-5b-5b-5b-5b7-5b7...~~--------------------------|
D|----------------------------------------------------|
A|----------------------------------------------------|
E|----------------------------------------------------|

(Parte 2)

E|----------------------------------------------------|
B|-13------10~-------10b--10b--12~--------------------|
G|-12b14---10~-------10b--10b--12~--------------------|
D|---------------x-x----------------------------------|
A|---------------x-x----------------------------------|
E|---------------x-x----------------------------------|

(Parte 3)

E|----------------------------------------------------|
B|-12-10-12b14~---------------------------------------|
G|-12-10-12b14~---------------------------------------|
D|----------------------------------------------------|
A|----------------------------------------------------|
E|----------------------------------------------------|

(Parte 4)

E|-13------13------13------13-------------------------|
B|-16b18~--16b18~--16b18~--16b18----------------------|
G|----------------------------------------------------|
D|----------------------------------------------------|
A|----------------------------------------------------|
E|----------------------------------------------------|

E|-13------14------15------16-------------------------|
B|-16b18~--17b19~--18b20~--19b21----------------------|
G|----------------------------------------------------|
D|----------------------------------------------------|
A|----------------------------------------------------|
E|----------------------------------------------------|

(Parte 5)

E|-17--------17-----------------------20b22r--20\-----|
B|-20b22~-------20b22----20b22r20p17------------------|
G|----------------------------------------------------|
D|----------------------------------------------------|
A|----------------------------------------------------|
E|----------------------------------------------------|

(Parte 6)

   H.A  .  .  .  .  .  .  .  .
E|----------------------------------------------------|
B|----------------------------------------------------|
G|-7b8--7--5------------------------------------------|
D|------------7--6------------------------------------|
A|------------------7--6--5--3--5/7--3b~--------------|
E|----------------------------------------------------|

(Parte 7)

E|----------------------------------------------------|
B|-7b8r7p5-7~---5-7b8--b8r7p5-7-----------------------|
G|------------------------------5~~/------------------|
D|----------------------------------------------------|
A|----------------------------------------------------|
E|----------------------------------------------------|

(Parte 8)

E|-------12-15b17--15\-----------17-20b22--20---------|
B|----13----------------------18----------------------|
G|-14--------------------/-19-------------------------|
D|----------------------------------------------------|
A|----------------------------------------------------|
E|----------------------------------------------------|

E|-----------22b24--20~-------------------------------|
B|-20b22r20-------------------------------------------|
G|----------------------------------------------------|
D|----------------------------------------------------|
A|----------------------------------------------------|
E|----------------------------------------------------|


Pré-Refrão:

Bb5                C5
Oh, I just gotta know
                   Bb5
If you're really there
                C5
And you really care

Cause baby I'm not


Terceiro Refrão:


( D5  C5  D5 )

                       F5  Bb5
Foo, foo, foo, foolin'

( D5  C5  D5 )

                     F5  G5
Ah foo, foo, foolin'

( D5  C5  D5 )

                           F5  Bb5
Not foo, foo, foo, foolin'

( D5  C5  D5 )

        F5         G5
I'm not    foolin'    myself

(I'm not foolin' myself)

(I'm not foolin' myself)

(I'm not foolin' myself)

(I'm not foolin' myself)
Composição de Joe Elliott / Robert John Mutt Lange / Steve Clark
Colaboração e revisão:
  • Vinícius Dias
  • Sergio Nascimento
21.694 exibições
    • ½ Tom
    • A
    • Bb
    • B
    • C
    • Db
    • D
    • Eb
    • E
    • F
    • F#
    • G
    • Ab
  • Adicionar à lista

    0 comentários

    Ver todos os comentários

    Conseguiu tocar?

    4 Tocaram 0 Ainda não

    Grave um vídeo tocando Foolin e nos envie!

    00:00 / 00:00
    Outros vídeos desta música
    Repetir Qualidade Automático
    Outros vídeos desta música
    00:00 / 00:00
    Automático
    Capítulos
    • Tocando a música
    • Dicas Iniciais e equipamentos
    • Configuração do Efeito
    • Acordes da Introdução e Primeira Parte
    • Tocando Introdução e Primeira Parte
    • Ensinando Arpejo da Introdução
    • Ensinando Passagem da Primeira Parte
    • Acordes da Segunda Parte
    • Tocando Segunda Parte
    • Ensinando Ritmo da Segunda Parte
    • Acordes do Pré-Refrão
    • Tocando Pré-Refrão
    • Ensinando Riff do Pré-Refrão
    • Acordes do Refrão
    • Tocando Refrão
    • Ensinando Ritmo do Refrão
    • Tocando Reptições
    • Tocando Solo
    • Ensinando Solo
    • Tocando Final
    • Encerramento
    • Ficha Técnica

    Cifra Club Pro

    Aproveite o Cifra Club com benefícios exclusivos e sem anúncios
    Cifra Club Pro
    Aproveite o Cifra Club com benefícios exclusivos e sem anúncios
    OK