Cifra Club

Rock Brigade

Def Leppard

Cifra: Principal (violão e guitarra)
Selo Cifra Club: esta cifra foi revisada para atender aos critérios oficiais da nossa Equipe de Qualidade.
tom: A
V = Palm mute
/ = Slide up
\ = Slide down
/B\ = Bend
~ = Vibrato
^ = Hammer on/off
 
 RIFF 'A'
E|------------------5--5-5-------------------------------------
B|-5----5-------5---5--5-5-5--4------5---5------7---7--------5-
G|-4----4-------4---4--4-4-4--4------5---5------7---7--------4-
D|-2----2-------2---2--2-2-2--4------5---5------7---7--------2-
A|---------5-2----------------2------3---3------5---5----------
E|-----------------------------------------5--3---------3--5---
 
RIFF 'B'
   A   G E   G D   G E   G A   G E   G A    B C    D
E|-----3-----3-----3-----3-----3-----3---------------
B|-2---3-5---3-3---3-5---3-2---3-5---3-------------3-
G|-2---0-4---0-2---0-4---0-2---0-4---0-2----4-5----2-
D|-2-----2-----0-----2-----2-----2-----2----4-5----0-
A|-0-----------------------0-----------0----2-3------
E|---------------------------------------------------
 
RIFF 'C'
   A   G E   G D   G E   G A   G E   G A   B C     D     E   D  A
E|-----3-----3-----3-----3-----3-----3----------------------------
B|-2---3-5---3-3---3-5---3-2---3-5---3-2---4-5-----7-----9--------
G|-2---0-4---0-2---0-4---0-2---0-4---0-2---4-5-----7-----9----7---
D|-2-----2-----0-----2-----2-----2-----2---4-5-----7-----9----7-7-
A|-0-----------------------0-----------0---2-3-----5-----7----5-7-
E|--------------------------------------------------------------5-
 
RIFF 'D'
(THIS LINE 2 TIMES)
E|----------------------------------------------------------
B|----------------------------------------------------------
G|-8/9-9-7-8-9-9-7-8-9-9--7-----8/9-9-7-8-9-9-7-8-9-9--7----
D|-8/9-9-7-8-9-9-7-8-9-9--7--7--8/9-9-7-8-9-9-7-8-9-9--7--7-
A|-6/7-7-5-6-7-7-5-6-7-7--5--7--6/7-7-5-6-7-7-5-6-7-7--6--7-
E|---------------------------6----------------------------6-
(THIS LINE 2 TIMES)
E|----------------------------------------------------------
B|----------------------------------------------------------
G|---------------------------7-------------------------7----
D|-8/9-9-7-8-9-9-7-8-9-9--7--7--8/9-9-7-8-9-9-7-8-9-9--7--7-
A|-8/9-9-7-8-9-9-7-8-9-9--7--5--8/9-9-7-8-9-9-7-8-9-9--5--7-
E|-6/7-7-5-6-7-7-5-6-7-7--5-----6/7-7-5-6-7-7-5-6-7-7-----5-
 
E|------------222-------
B|-555--------222-------
G|-444------------------
D|-222--------444-------
A|------------444-------
E|------------222-------
 
RIFF 'E'
   A   G E   G D   G E   G A   G E   G D   G E   G A   G E   G D   G E   G
E|-----3-----3-----3-----3-----3-----3-----3-----3-----3-----3-----3-----3-
B|-2---3-5---3-3---3-5---3-2---3-5---3-3---3-5---3-2---3-5---3-2---3-5---3-
G|-2---0-4---0-2---0-4---0-2---0-4---0-2---0-4---0-2---0-4---0-3---0-4---0-
D|-2-----2-----0-----2-----2-----2-----0-----2-----2-----2-----0-----2-----
A|-0-----------------------0-----------------------0-----------------------
E|-------------------------------------------------------------------------
 
   A   G E   G A    B C      D      E    D    A    G    E    E5
E|-----3-----3-----------------------------------------------0----
B|-2---3-5---3-2----4-5------7------9----7----2----0----5----5----
G|-2---0-4---0-2----4-5------7------9----7----2----0----4----4----
D|-2-----2-----2----4-5------7------9----7----2----0----2----2----
A|-0-----------0----2-3------5------7----5----0--------------2----
E|-------------------------------------------------3---------0----
 
(Riff 'A' 2 times)
(Riff 'A')
Well in the middle of the night
And the early morning light
You can hear them a million miles away
(Riff 'A')
They'll be banging on their drums
Banging on your door
Waving their flags telling you the score
     
          (Riff 'B')
CHORUS:   Watch out for the Rock Brigade
          Oh no it's the Rock Brigade
          Look out for the Rock Brigade
          Leading you away, away
 
(Riff 'A')
So when they hit your town
You'd better get down I'm telling no lies to you mister
(Riff 'A')
'cause they live for rock 'n' roll
They'll try to steal your soul
Might even try to steal your sister
 
(Riff 'C')
CHORUS
 
(Riff 'D')
SOLO
 
(Riff 'A')
So in the middle of the night
Or the early morning light
If you hear them coming your way
(Riff 'A')
Well you'd better watch you step
Don't step out of line
'cause here they come one more time
 
(Riff 'E')
CHORUS
CHORUS
Outros vídeos desta música
    988 exibições
      • ½ Tom
      • A
      • Bb
      • B
      • C
      • Db
      • D
      • Eb
      • E
      • F
      • F#
      • G
      • Ab
    • Adicionar à lista

    Afinação da cifra

    Afinador online

      0 comentários

      Ver todos os comentários

      Entre para o Cifra Club PRO

      Tenha acesso a benefícios exclusivos no App e no Site

      • Chega de anúncios

      • Badges exclusivas

      • Mais recursos no app do Afinador

      • Atendimento Prioritário

      • Aumente seu limite de lista

      • Ajude a produzir mais conteúdo

      Cifra Club Pro

      Aproveite o Cifra Club com benefícios exclusivos e sem anúncios
      Cifra Club Pro
      Aproveite o Cifra Club com benefícios exclusivos e sem anúncios
      Ops (: Contenido disponible sólo en portugués.
      OK