Cifra Club

Answers

Deftones

Cifra: Principal (violão e guitarra)
tom: G
E|--------0------------x-------x-----------------|------0----------|
B|--x---3--3-x--3--3---x-3--3--x---3--3--3--3----|--3-3-0----3--3--|
G|--x-x-2--2-xx-3--3---x-2--2--xx--3--3--3--3----|--3p2---x--3--3--|
D|----x-------x-----------------x----------------|--------x--------|
A|-----------------------------------------------|-----------------|
E|-----------------------------------------------|-----------------|

E|------------x---------x---|---------|
B|--x-------x-x-------x-x---|---------|
G|--x-5--5--x-x-5---5-x---5-|---------|
D|--x-5--5--x---5---5-x---5-|---------|
A|----3--3------3---3-----3-|---------|
E|--------------------------|---------|

E|---------------------------|
B|---------------------------|
G|---------------------------|
D|--5-5-x-5-5---7-7----4--2--|
A|--5-5-x-5-5---7-7-5--4--2--|
E|--3-3-x-3-3-0-5-5-5--2--0--|

E|-------------------------------------|
B|-------------------------------------|
G|------6-6-6-6-8-8----6-6-6-6-5-5-----|
D|--7-7-6-6-6-6-8-8----6-6-6-6-5-5-----|
A|--7-7-4-4-4-4-6-6-2--4-4-4-4-3-3--2--|
E|--5-5-------------0---------------0--|

E|-----------------------------------------|
B|--2h3-3-3-5-5^---2h3-3-3-3-3-5-5h6p5-----|
G|---------------5----------------------5--|
D|-----------------------------------------|
A|-----------------------------------------|
E|-----------------------------------------|

Solo:
E|-----------------------------------------------------------------|
B|--/5^--5-5-5^^-5h6-p5^---------11^-11-11^13-------------12-------|
G|-----------------------5^--/11--------------/13^--10-12----13^---|
D|-----------------------------------------------------------------|
A|-----------------------------------------------------------------|
E|-----------------------------------------------------------------|

E|-------------------------------------------------------------------------------12-|
B|-----------------------------------------------------------------/9^-9-9h10h12----|
G|--/12^--11^13--15-13-------------------------10^---10----10^-10^------------------|
D|--------------------------------8-9-11-8-10-----11----11--------------------------|
A|----------------------6-7-9-7-8---------------------------------------------------|
E|----------------------------------------------------------------------------------|

E|--10-10h12h15-15-10-10h12h13-10-10h12h15p12p10-10-10h12h13p12-10-12-10^----|
B|---------------------------------------------------------------------------|
G|---------------------------------------------------------------------------|
D|---------------------------------------------------------------------------|
A|---------------------------------------------------------------------------|
E|---------------------------------------------------------------------------|

E|-----------------------------------|--------|
B|-----------------------------------|--------|
G|-------10-10-10-10\8/13-13^-13-13--|--9-\\--|
D|--7-7---x--x--x--x-x--x--x---x--x--|--9-\\--|
A|--7-7---8--8--8--8\6/11-11^-11-11--|--7-\\--|
E|--5-5------------------------------|--------|

00:00 / 00:00
Outros vídeos desta música
Repetir
Outros vídeos desta música
Compositor não encontrado.
Colaboração e revisão:
  • Mansinho Jr.
182 exibições
    • ½ Tom
    • A
    • Bb
    • B
    • C
    • Db
    • D
    • Eb
    • E
    • F
    • F#
    • G
    • Ab
  • Adicionar à lista

    0 comentários

    Ver todos os comentários

    Conseguiu tocar?

    0 Tocaram 0 Ainda não

    Grave um vídeo tocando Answers e nos envie!

    Entre para oCifra Club PRO

    Tenha acesso a benefícios exclusivos no App e no Site

    • Chega de anúncios

    • Prioridade de compra em lançamentos

    • Mais recursos no app do Afinador

    • Atendimento Prioritário

    • Descontos nos produtos Cifra Club

    • Ajude a produzir mais conteúdo

    00:00 / 00:00

    Cifra Club Pro

    Aproveite o Cifra Club com benefícios exclusivos e sem anúncios
    Cifra Club Pro
    Aproveite o Cifra Club com benefícios exclusivos e sem anúncios
    OK