Cifra Club

Damone

Deftones

Cifra: Principal (violão e guitarra)
tom: C
Tuning:  Db-Ab-Db-Gb-Bb-Eb  (1/2 step drop d) 

Intro 

|----------------------------------------------------------
|----------------------------------------------------------
|--6--7--2--3----------------------------------------------
|--6--7--2--3----------------------------------------------
|--4--5--0--1----------------------------------------------
|----------------------------------------------------------

 
Verse 

-----------------------------------------------------------
-----------------------------------------------------------
--10-\-----------------------------------------------------
---------0-------------------------------------------------
-- 8--\--0-------------------------------------------------
---------0-------------------------------------------------


Pre Chorus Riff 1 

----------------------------------------------------------- 
----------------------------------------------------------- 
--2--3---------------------------------------------------- 
--2--3---------------------------------------------------- 
--0--1---------------------------------------------------- 
----------------------------------------------------------- 
 

Pre Chorus Riff 2  (on every fourth time of Riff 1) 

-----------------------------------------------------------
-----------------------------------------------------------
--2--3--\--5-----------------------------------------------
--2--3--\--5-----------------------------------------------
--0--1--\--3-----------------------------------------------
-----------------------------------------------------------
 

Chorus 

----------------------------------------------------------
----------------------------------------------------------
--6--7--2--3---------------------------------------------- 
--6--7--2--3---------------------------------------------- 
--4--5--0--1---------------------------------------------- 
----------------------------------------------------------
 

Bridge 

-----------------------------------------------------------
-----------------------------------------------------------
--6-^------------------------------------------------------
--6-----0--------------------------------------------------
--4-----0--------------------------------------------------
--------0--------------------------------------------------

 

Here s how it goes 

 

Intro   x 2 

Verse    x 4 

Pre Chorus Riff 1  x 2 

Verse   x 4 

Pre Chorus Riff 1  x 3 

Pre Chorus Riff 2  x 1 

Chorus  x 2 

Verse   x 4 

Pre Chorus Riff 1 x 3 

Pre Chorus Riff 2 x 1 

Chorus  x 2 

Bridge   x 4 

Verse   x 4 

Pre Chorus Riff 1  x 3 

Pre Chorus Riff 2  x 1 

Chorus  x 4 

Bridge  x 4
00:00 / 00:00
Outros vídeos desta música
Repetir
Outros vídeos desta música
Compositor não encontrado.
Colaboração e revisão:
  • Rafael Silva
2.163 exibições
    • ½ Tom
    • A
    • Bb
    • B
    • C
    • Db
    • D
    • Eb
    • E
    • F
    • F#
    • G
    • Ab
  • Adicionar à lista

    0 comentários

    Ver todos os comentários

    Conseguiu tocar?

    0 Tocaram 0 Ainda não

    Grave um vídeo tocando Damone e nos envie!

    Entre para oCifra Club PRO

    Tenha acesso a benefícios exclusivos no App e no Site

    • Chega de anúncios

    • Prioridade de compra em lançamentos

    • Mais recursos no app do Afinador

    • Atendimento Prioritário

    • Descontos nos produtos Cifra Club

    • Ajude a produzir mais conteúdo

    00:00 / 00:00

    Cifra Club Pro

    Aproveite o Cifra Club com benefícios exclusivos e sem anúncios
    Cifra Club Pro
    Aproveite o Cifra Club com benefícios exclusivos e sem anúncios
    OK