Cifra Club

Feiticeira

Deftones

Cifra: Principal (violão e guitarra)
tom: G
tuning= CGCFAD 
**** = harmonics 
//// = slide 
(3)  = dont pick it 
 

riff 1 

* = harmonics 

D---------------------------|------------------------- 
A--************-------------|--********-------------- 
F------9---999--------------|------9------------------ 
C------9---999--11/12-11/12-|------9----11/12-11/12--- repeat 
G--999999999999-11/12-11/12-|--99999999-11/12-11/12--- 
C--999999999999-11/12-11/12-|--99999999-11/12-11/12--- 
 

            riff 2 

D-----------|------------------------------------ 
A-----------|------------------------------------ 
F------11p0-|-131313131313131313131313-----11p0-- 
C--8/9-11p0-|-111111111111111111111111-8/9-11p0-- repeat 
G--8/9-9-p0-|-111111111111111111111111-8/9-9-p0-- 
C--8/9------|-111111111111111111111111-8/9------- 
 

riff 3 

lotsa layers here, not sure if its all guitar 


1st gtr

D----------------------- 
A---------^-------------- 
F--10-----10---6------10- 
C------------------------ 
G--8------8----4--(3)-9-- 
C----------------------- 
 

2nd gtr 

D------------------------- 
A---------^--------------- 
F--10-----10---10------10- 
C------------------------- 
G--8------8-----8------9-- 
C------------------------- 
 

fill (all harmonics) 

"soon i'll letcha go..." 

D------------------------------------ 
A--********************************-- 
F--------------------------55555555-- 
C------------------55555555---------- 
G--5555555555555555------------------ 
C------------------------------------ 
 

fill 2 

"soon i'll letcha go..." 

D------------------------------------- 
A-tens-------------------------------- 
F-1010101010101010-66666666666666666-- 
C------------------------------------- 
G-8888888888888888-44444444444444444-- 
C-------------------------------------- 


end on 

D--------- 
A--10----- 
F--------- 
C--------- 
G--8------ 
C--0------
00:00 / 00:00
Outros vídeos desta música
Repetir
Outros vídeos desta música
Composição de Deftones
Colaboração e revisão:
  • Rafael Silva
5.345 exibições
    • ½ Tom
    • A
    • Bb
    • B
    • C
    • Db
    • D
    • Eb
    • E
    • F
    • F#
    • G
    • Ab
  • Adicionar à lista

    0 comentários

    Ver todos os comentários

    Conseguiu tocar?

    0 Tocaram 0 Ainda não

    Grave um vídeo tocando Feiticeira e nos envie!

    Entre para oCifra Club PRO

    Tenha acesso a benefícios exclusivos no App e no Site

    • Chega de anúncios

    • Prioridade de compra em lançamentos

    • Mais recursos no app do Afinador

    • Atendimento Prioritário

    • Descontos nos produtos Cifra Club

    • Ajude a produzir mais conteúdo

    00:00 / 00:00

    Cifra Club Pro

    Aproveite o Cifra Club com benefícios exclusivos e sem anúncios
    Cifra Club Pro
    Aproveite o Cifra Club com benefícios exclusivos e sem anúncios
    OK