Cifra Club

Kimdracula

Deftones

Cifra: Principal (violão e guitarra)
tom: D
Verso - Parte 1
|--------------------------------------|
|--------------------------------------|
|10-10---12---12-10-10--10-10--10------|
|-x-x-----x----x--x--x---x--x---x------|  3x
|-8/10---10---10--8--8---8--8---8------|
|-0-0--0--0-0--0--0--0-0-0--0-0-0------|

Verso - Parte 2
|--------------------------------------|
|--------------------------------------|
|-5-3---3---3----3--3----3--3---3------|
|-x-x---x---x----x--x----x--x---x------|  2x
|-3/1---1---1----1--1----1--1---1------|
|-0-0-0-0-0-0--0-0--0--0-0--0-0-0------|

Ou
|--------------------------------------|
|--------------------------------------|
|--------------------------------------|
|-8h10---10--10---8--8-8-8-------------|  2x
|-8----8--8-8-8-8-8--8-8-8-------------|
|-8----8--8-8-8-8-8--8-8-8-------------|

Refrão
|-----------------------------------------------------|
|-----------------------------------------------------|
|-8----5----------------------------------------------|
|-8-x8-5-x8-0-----5-----0-----1-----0-----3----1------|
|-6----3----0-x16-5-x16-0-x16-1-x16-0-x16-3-x8-1-x8---|
|-----------0-----5-----0-----1-----0-----3----1------|

Ponte
|-------------------------------------------------------|
|-------------------------------------------------------|
|-------------------------------------------------------|
|-8/10-10--10-10-10-10/13--13-13-13-13------------------|
|-8/10-10--10-10-10-10/13--13-13-13-13------------------|
|-8/10-10--10-10-10-10/13--13-13-13-13------------------|
00:00 / 00:00
Outros vídeos desta música
Repetir
Outros vídeos desta música
Composição de Deftones
Colaboração e revisão:
  • Pedro Rodrigues
226 exibições
    • ½ Tom
    • A
    • Bb
    • B
    • C
    • Db
    • D
    • Eb
    • E
    • F
    • F#
    • G
    • Ab
  • Adicionar à lista

    0 comentários

    Ver todos os comentários

    Conseguiu tocar?

    1 Tocaram 0 Ainda não

    Grave um vídeo tocando Kimdracula e nos envie!

    Entre para oCifra Club PRO

    Tenha acesso a benefícios exclusivos no App e no Site

    • Chega de anúncios

    • Prioridade de compra em lançamentos

    • Mais recursos no app do Afinador

    • Atendimento Prioritário

    • Descontos nos produtos Cifra Club

    • Ajude a produzir mais conteúdo

    00:00 / 00:00

    Cifra Club Pro

    Aproveite o Cifra Club com benefícios exclusivos e sem anúncios
    Cifra Club Pro
    Aproveite o Cifra Club com benefícios exclusivos e sem anúncios
    OK