Cifra Club

Moana

Deftones

Cifra: Principal (violão e guitarra)
tom: E
Intro:

C#|--------------------------------------------------------------------------|
G#|--------------------------------------------------------------------------|
E |-----------------------------------------14--14-14-14--14-14-14--14-14----|
B |-14--14-14-14--14-14-14--14-14-14--14-14--x---x--x--x---x--x--x---x--x----|
F#|--x---x--x--x---x--x--x---x--x--x---x--x-12--12-12-12--12-12-12--12-12----|
C#|-12--12-12-12--12-12-12--12-12-12--12-12----------------------------------|
G#|--------------------------------------------------------------------------|

Verso 1:

C#|--------------------------------------------------------------------------|
G#|--------------------------------------------------------------------------|
E |---------------------------------14-14-14-14-14-14-14-14-14-14-14-14-14-14|
B |-9-9-9-9-9-9-9-9-9-9-9-9-9-9-9-9--x--x--x--x--x--x--x--x--x--x--x--x--x--x|
F#|-7-7-7-7-7-7-7-7-7-7-7-7-7-7-7-7-12-12-12-12-12-12-12-12-12-12-12-12-12-12|
C#|-7-7-7-7-7-7-7-7-7-7-7-7-7-7-7-7------------------------------------------|
G#|--------------------------------------------------------------------------|

Verso 2:

C#|----0-------0-------0-------0-------0-------------------------------------|
G#|----0-------0-------0-------0-------0-------------------------------------|
E |----------------------------------------14--14-14-14--14-14-14--14-14-----|
B |-----------------------------------------x---x--x--x---x--x--x---x--x-----|
F#|-7--7-7-7-7-7-7-7-7-7-7-7-7-7-7-7-7-7---12--12-12-12--12-12-12--12-12-----|
C#|-7--7-7-7-7-7-7-7-7-7-7-7-7-7-7-7-7-7-------------------------------------|
G#|-5--5-5-5-5-5-5-5-5-5-5-5-5-5-5-5-5-5-------------------------------------|

Verso 3:
                          
C#|----0-------0-------0-------0-------0-------------------------------------|
G#|----0-------0-------0-------0-------0-------------------------------------|
E |---------------------------------------14--14-14-14--14-14-14--14-14/16-16|
B |----------------------------------------x---x--x--x---x--x--x---x--x/-x--x|
F#|-7--7-7-7-7-7-7-7-7-7-7-7-7-7-7-7-7-7--12--12-12-12--12-12-12--12-12/14-14|
C#|-7--7-7-7-7-7-7-7-7-7-7-7-7-7-7-7-7-7-------------------------------------|
G#|-5--5-5-5-5-5-5-5-5-5-5-5-5-5-5-5-5-5-------------------------------------|

Refrão 1:

C#|--------------------------------------------------------------------------|
G#|--------------------------------------------------------------------------|
E |--------------------------------------------------------------------------|
B |-11-11-11-11-11-11-11-11-9-9-9-7-10---------------------------------------|
F#|-11-11-11-11-11-11-11-11-9-9-9-7-10---------------------------------------|
C#|--9--9--9--9--9--9--9--9-7-7-7-5--8---------------------------------------|
G#|--9--9--9--9--9--9--9--9--------------------------------------------------|

Refrão 2:

C#|-0-0-0-0--0--0-0-0-0--0--0-0-0-0--0--0-0-0-0--0---------------------------|
G#|-0-0-0-0--0--0-0-0-0--0--0-0-0-0--0--0-0-0-0--0---------------------------|
E |--------------------------------------------------------------------------|
B |-9-9-9-7-10--9-9-9-7-10--9-9-9-7-10--9-9-9-7-10---------------------------|
F#|-9-9-9-7-10--9-9-9-7-10--9-9-9-7-10--9-9-9-7-10---------------------------|
C#|-7-7-7-5--8--7-7-7-5--8--7-7-7-5--8--7-7-7-5--8---------------------------|
G#|--------------------------------------------------------------------------|

 Final: (E um slide com a palheta)
C#|----|
G#|----|
E |-9--|
B |-9--|
F#|-7--|
C#|-7--|
G#|-0--|

Estrutura da Música:
Intro 6x
Verso 1 4x
Verso 2 1x
Verso 3 1x
Refrão 1 4x
Refrão 2 1x
Verso 1 4x
Verso 2 1x
Verso 3 1x
Refrão 1 4x
Refrão 2 1x
Intro 4x
Verso 2 1x
Verso 3 1x
Verso 2 1x
Verso 3 1x
Verso 2 1x
Verso 3 1x
Refrão 1 4x
Refrão 2 2x
Final
00:00 / 00:00
Outros vídeos desta música
Repetir
Outros vídeos desta música
Composição de Deftones
Colaboração e revisão:
  • Pedro Rodrigues
754 exibições
    • ½ Tom
    • A
    • Bb
    • B
    • C
    • Db
    • D
    • Eb
    • E
    • F
    • F#
    • G
    • Ab
  • Adicionar à lista

    0 comentários

    Ver todos os comentários

    Conseguiu tocar?

    0 Tocaram 0 Ainda não

    Grave um vídeo tocando Moana e nos envie!

    Entre para oCifra Club PRO

    Tenha acesso a benefícios exclusivos no App e no Site

    • Chega de anúncios

    • Prioridade de compra em lançamentos

    • Mais recursos no app do Afinador

    • Atendimento Prioritário

    • Descontos nos produtos Cifra Club

    • Ajude a produzir mais conteúdo

    00:00 / 00:00

    Cifra Club Pro

    Aproveite o Cifra Club com benefícios exclusivos e sem anúncios
    Cifra Club Pro
    Aproveite o Cifra Club com benefícios exclusivos e sem anúncios
    OK