Cifra Club

Root

Deftones

Cifra: Principal (violão e guitarra)
tom: G
(00:01 - 00:07)
E|---------------------------------------|
B|---------------------------------------|
G|-----9-9-----------7-7-----------------|
D|---------9-9-10-10-----10-10-9-9-------|
A|-7-7-----------------------------10-10-|
E|---------------------------------------|

(0:07 - 0:10)
E|----------------------------|
B|----------------------------|
G|-----9-9--------------------|
D|---------9-9-10-10-1-1--1-1-|
A|-7-7---------------1-1--1-1-|
E|-------------------0-0--0-0-|
pm                   . .  . .

(0:10 - 0:21)
E|------------------------------|
B|------------------------------|
G|-----4-4----------------------|
D|-2-2-2-2-4-4-5-5-77-55-44-----|
A|-2-2-----2-2-3-3-55-33-22-5-5-|
E|-0-0----------------------3-3-|

(0:21 - 0:41)
E|---------------------------------------------------------------------|
B|---------------------------------------------------------------------|
G|--------------------------------------------------------9~-------x-x-|
D|-1~----1-1-1-1-1~----1-1-1-1-1~----1-1--1-1~----1-1-1-1-9~-------x-x-|
A|-1~----1-1-1-1-1~----1-1-1-1-1~----1-1--1-1~----1-1-1-1-7~-------x-x-|
E|-0~----0-0-0-0-0~----0-0-0-0-0~----0-0--0-0~----0-0-0-0--------------|
pm       . . . .       . . . .       . .  .       . . . .

(0:41 - 1:02)
E|---------------------------------------| palm mute (0:41 - 0:55)
B|---------------------------------------|
G|-----9-9-----------7-7-----------------|
D|---------9-9-10-10-----10-10-9-9-------|
A|-7-7-----------------------------10-10-|
E|---------------------------------------|

(1:02 - 1:03)
E|----|
B|----|
G|----|
D|----|
A|-9-|
E|-7-|

(1:03 - 1:24)
E|------------------------------|
B|------------------------------|
G|-----4-4----------------------|
D|-2-2-2-2-4-4-5-5-77-55-44-----|
A|-2-2-----2-2-3-3-55-33-22-5-5-|
E|-0-0----------------------3-3-|

(1:24 - 1:36)
E|------------------------------|
B|------------------------------|
G|-----------------9~-------x-x-|
D|-1-1-1-1-1-1-1-1-9~-------x-x-|
A|-1-1-1-1-1-1-1-1-7~-------x-x-|
E|-0-0-0-0-0-0-0-0--------------|
pm . . . . . . . .

(1:36 - 1:56)
E|---------------------------------------| palm mute (1:36 - 1:52)
B|---------------------------------------|
G|-----9-9-----------7-7-----------------|
D|---------9-9-10-10-----10-10-9-9-------|
A|-7-7-----------------------------10-10-|
E|---------------------------------------|

(1:56 - 1:57)
E|----|
B|----|
G|----|
D|----|
A|-9-|
E|-7-|

(1:57 - 2:18)
E|------------------------------|
B|------------------------------|
G|-----4-4----------------------|
D|-2-2-2-2-4-4-5-5-77-55-44-----|
A|-2-2-----2-2-3-3-55-33-22-5-5-|
E|-0-0----------------------3-3-|

(2:18 - 2:19)
E|-----------------|
B|-----------------|
G|-----------------|
D|-1-1-1-1-1-1-1-1-|
A|-1-1-1-1-1-1-1-1-|
E|-0-0-0-0-0-0-0-0-|
pm . . . . . . . .

(2:19 - 2:38)                                           (2:28 and 2:38)
E|---------------------------------------------------|  E|-------|
B|---------------------------------------------------|  B|-------|
G|---------------------------------------------------|  G|-------|
D|-87-x-7-x-6-x-5-x-43-3--2-2-2-2-2--2-2-2-2-2-2-2-|  D|-3/4-3-|
A|-87-x-7-x-6-x-5-x-43-3--2-2-2-2-2--2-2-2-2-2-2-2-|  A|-1/2-1-|
E|-65-x-5-x-4-x-3-x-21-1--0-0-0-0-0--0-0-0-0-0-0-0-|  E|-0---0-|
pm                          . . . .    . . . .

(2:39 - 2:53)
E|------------------------------------------------------------|
B|------------------------------------------------------------|
G|--------------------------------------------------------9~--|
D|-1~----1-1-1-1-1~----1-1-1-1-1~----1-1--1-1~----1-1-1-1-9~--|
A|-1~----1-1-1-1-1~----1-1-1-1-1~----1-1--1-1~----1-1-1-1-7~--|
E|-0~----0-0-0-0-0~----0-0-0-0-0~----0-0--0-0~----0-0-0-0-----|
pm       . . . .       . . . .       . .  .       . . . .

(2:54 - 3:07)
E|-----0----0-------------0-|
B|------------0-----------x-|
G|---4----------0---------4-|
D|-5----------------------5-|
A|--------------------------|
E|--------------------------|

(3:07 - 3:10)
E|---------|
B|---------|
G|---------|
D|-2-2-2~--|
A|-2-2-2~--|
E|-0-0-0~--|

(3:10 - 3:28)
E|---------------------------------------------------------------------------0~------0~--|
B|---------------------------------------------------------------------------0~------0~--|
G|-9tr--10tr--13tr--14tr--13tr--10tr--9tr--10tr--13tr--14tr--13tr--10tr------0~------0~--|
D|-x----x-----x-----x-----x-----x-----x----x-----x-----x-----x-----x-----2-2-0~--2-2-0~--|
A|-7tr--8tr---11tr--12tr--11tr--8tr---7tr--8tr---11tr--12tr--11tr--8tr---2-2-0~--2-2-0~--|
E|-----------------------------------------------------------------------0-0-----0-0-----|

(3:28  - 3:43)
E|--------------------0~-|
B|--------------------0~-|
G|--------------------2~-|
D|-3--3--3~----2--2---3~-|
A|-3--3--3~----2--2---3~-|
E|-1--1--1~----0--0---1~-|
00:00 / 00:00
Outros vídeos desta música
Repetir
Outros vídeos desta música
Composição de Abe Cunningham / Chi Cheng / Stephen Carpenter
Colaboração e revisão:
  • Braulio Sousa
602 exibições
    • ½ Tom
    • A
    • Bb
    • B
    • C
    • Db
    • D
    • Eb
    • E
    • F
    • F#
    • G
    • Ab
  • Adicionar à lista

    0 comentários

    Ver todos os comentários

    Conseguiu tocar?

    0 Tocaram 0 Ainda não

    Grave um vídeo tocando Root e nos envie!

    Entre para oCifra Club PRO

    Tenha acesso a benefícios exclusivos no App e no Site

    • Chega de anúncios

    • Prioridade de compra em lançamentos

    • Mais recursos no app do Afinador

    • Atendimento Prioritário

    • Descontos nos produtos Cifra Club

    • Ajude a produzir mais conteúdo

    00:00 / 00:00

    Cifra Club Pro

    Aproveite o Cifra Club com benefícios exclusivos e sem anúncios
    Cifra Club Pro
    Aproveite o Cifra Club com benefícios exclusivos e sem anúncios
    OK