Cifra Club

Rosemary

Deftones

Cifra: Principal (violão e guitarra)
Tom: E
Intro:

D|------------------5---------------------------5-------------------------------|
A|--------------3----------------------------3----------------------------------|
F|-----------3----------------------------3-------------------------------------|
C|------------------------------------------------------------------------------|
G|------------------------------------------------------------------------------|
A#|-----------------------------------------------------------------------------|

D|-----------------------------------------------------------------------------|
A|-----------------------------------------------------------------------------|
F|-----2-----------------5------5h7/10~~-----10--------------------------------|
C|----------3------------------------------------------------------------------|
G|-----------------------------------------------------------------------------|
A#|--------------2~~-----------------------------------------------------------|

D|-----------------------------------------------------------------------------|
A|----------------------------------------10-----------------------------------|
F|------2---------------5-------5h7/10--------9--------------------------------|
C|----------3------------------------------------------------------------------|
G|-----------------------------------------------------------------------------|
A#|-------------(2)------------------------------------------------------------|

D|-----------------------------------------------------------------------------|
A|-----------------------------------------------------------------------------|
F|-----2-----------------5------5h7/10v -----10--------------------------------|
C|----------3------------------------------------------------------------------|
G|-----------------------------------------------------------------------------|
A#|---------------2~~----------------------------------------------------------|

D|-----------------------------------------------------------------------------|
A|-----------------------------------------------------------------------------|
F|-----------------------------------------------------------------------------|
C|---------3-3---------3h5-5---------------------------------------------------|
G|---------------h5-------------3h5--------------------------------------------|
A#|----------------------------------------------------------------------------|

D|-----------------------------------------------------------------------------|
A|------------------------0~~~------------------------------------0------------|
F|-----------------------------------------------------------------------------|
C|-----------------------------------------------------------------------------|
G|-----------------------------------------------------------------------------|
A#|--------0h2------0h2------------0h2---0h2--0h2---0h2--0h2--0h2--------------|

 "There's no sound..."
D|-----------------------------------------------------------------------------|
A|-----------------------------------------------------------------------------|
F|-----2-----------------5------5h7/10~~-----10------~-------------------------|
C|----------3------------------------------------------------------------------|
G|-----------------------------------------------------------------------------|
A#|----------------2~~---------------------------------------------------------|

D|-----------------------------------------------------------------------------|
A|-------------------------------------------10--------------------------------|
F|------2---------------5-------5h7/10---------9-------------------------------|
C|----------3------------------------------------------------------------------|
G|-----------------------------------------------------------------------------|
A#|--------------(2)-----------------------------------------------------------|

D|-----------------------------------------------------------------------------|
A|-----------------------------------------------------------------------------|
F|-----2-----------------5------5h7/10~~~~-----10------------------------------|
C|----------3------------------------------------------------------------------|
G|-----------------------------------------------------------------------------|
A#|----------------(2)----------------------------------------------------------|

D|-----------------------------------------------------------------------------|
A|-----------------------------------------------------------------------------|
F|-----------------------------------------------------------------------------|
C|---------3-3---------3h5-5---------------------------------------------------|
G|---------------h5-------------3h5--------------------------------------------|
A#|----------------------------------------------------------------------------|

D|-----------------------------------------------------------------------------------------|
A|-----------------------------------------------------------------------------------------|
F|-----------------------------------------------------------------------------------------|
C|-----------------------------------------------------------------------------------------|
G|------------------------------------------------------------------------3-3-3-3-5-5-5-5--|
A#|---2-2-2-2-2-2-0-0------2-2-2-2-2-3h2p3-0-2--2-2-2-2-2-2-0-0-5-5-5-5-7-7-7-7-------------|

"Time!.." (listen for timing on this riff same notes just different accents on the down beat)

D|-----------------------------------------------------------------------------------------|
A|-----------------------------------------------------------------------------------------|
F|-----------------------------------------------------------------------------------------|
C|-----------------------------------------------------------------------------------------|
G|----0-0-----------------------------------------------------------------3-3-3-3-5-5-5-5--|
A#|---2-2-2-2-2-2-0-0------2-2-2-2-2-3h2p3-0-2--2-2-2-2-2-2-0-0-5-5-5-5-7-7-7-7------------|

"Our mind's bend..."

D|-----------------------------------------------------------------------------|
A|-----------------------------------------------------------------------------|
F|-----2-----------------5------5h7/10 (slight vibrato bend) -----10-----------|
C|----------3------------------------------------------------------------------|
G|-----------------------------------------------------------------------------|
A#|---------------2~~-------------------------------------------------~--------|

D|-----------------------------------------------------------------------------|
A|-------------------------------------------10--------------------------------|
F|------2---------------5-------5h7/10---------9-------------------------------|
C|----------3------------------------------------------------------------------|
G|-----------------------------------------------------------------------------|
A#|-------------(2)------------------------------------------------------------|

D|------------------------------------------------------------------------------|
A|------------------------------------------------------------------------------|
F|-----2-----------------5------5h7/10~~----------------------------------------|
C|----------3-------------------------------------------------------------------|
G|------------------------------------------------------------------------------|
A#|---------------(2)-----------------------------------------------------------|

D|-----------------------------------------------------------------------------|
A|-----------------------------------------------------------------------------|
F|-----------------------------------------------------------------------------|
C|---------3-3---------3h5-5---------------------------------------------------|
G|---------------h5-------------3h5--------------------------------------------|
A#|----------------------------------------------------------------------------|

D|-----------------------------------------------------------------------------------------------|
A|-----------------------------------------------------------------------------------------------|
F|-----------------------------------------------------------------------------------------------|
C|-----------------------------------------------------------------------------------------------|
G|--------------------------------------------------------------------------------3-3-3-3-5-5-5-5|
A#|---2-2-2-2-2-2-0pm-0pm------2-2-2-2-2-3h2p3-0-2-2-2-2-2-2-2-0-0--5-5-5-5-7-7-7-7--------------|


"Stay with me..." (Listen for the rhythm to get the strumming and chord changes right)

D|-----------------------------------------|
A|-----------------------------------------|
F|-----9-9-9--4-4-4/5-5-5-5-4-4-4-4--------|  (3x)
C|-----X-x-X--x-x-x-5-5-5-5-5-5-5-5--------|
G|-----7-7-7--2-2-2/3-3-3-3-3-3-3-3--------|
A#|----------------------------------------|

Break Down (listen for accents on the down beat. He does some bends on the 2nd fret)

D|-----------------------------------------------------------------------------|
A|-----------------------------------------------------------------------------|
F|-----------------------------------------------------------------------------|
C|-----------------------------------------------------------------------------|
G|-----------------------------------------------------------------------------|
A#|----0h2-0h2-0h2-0h2-0h2-0h2---0h2-0h2-0h2-0h2-0h2-0h2pm---------------------|

"We slow down..."
D|-----------------------------------------------------------------------------|
A|-----------------------------------------------------------------------------|
F|-----2-----------------5------5h7/10~~-----10--------------------------------|
C|----------3------------------------------------------------------------------|
G|-----------------------------------------------------------------------------|
A#|---------------2~~----------------------------------------------------------|

D|-----------------------------------------------------------------------------|
A|-------------------------------------------10--------------------------------|
F|------2---------------5-------5h7/10---------9-------------------------------|
C|----------3------------------------------------------------------------------|
G|-----------------------------------------------------------------------------|
A#|-------------(2)------------------------------------------------------------|

D|-----------------------------------------------------------------------------|
A|-----------------------------------------------------------------------------|
F|-----2-----------------5------5h7/10v ---------------------------------------|
C|----------3------------------------------------------------------------------|
G|-----------------------------------------------------------------------------|
A#|----------------(2)---------------------------------------------------------|

D|-----------------------------------------------------------------------------|
A|-----------------------------------------------------------------------------|
F|-----------------------------------------------------------------------------|
C|---------3-3---------3h5-5---------------------------------------------------|
G|---------------h5-------------3h5--------------------------------------------|
A#|----------------------------------------------------------------------------|

"Time!.."

D|-----------------------------------------------------------------------------------------|
A|-----------------------------------------------------------------------------------------|
F|-----------------------------------------------------------------------------------------|
C|-----------------------------------------------------------------------------------------|
G|----0-0-----------------------------------------------------------------3-3-3-3-5-5-5-5--|
A#|---2-2-2-2-2-2-0-0------2-2-2-2-2-3h2p3-0-2--2-2-2-2-2-2-0-0-5-5-5-5-7-7-7-7------------|

"Stay with me..." (Listen for the rhythm to get the strumming right and chord changes)

D|-----------------------------------------|
A|-----------------------------------------|
F|-----9-9-9--4-4-4/5-5-5-5-4-4-4-4--------| (6x)
C|-----X-x-X--x-x-x-5-5-5-5-5-5-5-5--------|
G|-----7-7-7--2-2-2/3-3-3-3-3-3-3-3--------|
A#|----------------------------------------|


Steph's Heavy Breakdown (Again, listen for timing, and be aware of palm mutes)

D|----------------------------------------------------------------------------------------|
A|----------------------------------------------------------------------------------------|
F|----------------------------------------------------------------------------------------|
C|----------------------------------------------------------------------------------------|
G|----------------------------------------------------------------------------------------|
A#|-h1p0--3h2pm---h2p0--3h2pm--h2p0---3h2pm--h1p0---3h2pm--h2p0-0-0-h2p0-3h2pm--h1p0 3h2--|


Outro:

D|------------9---------------------------------------------9------------------------|
A|----------12---12-----------------0-----------12--12--12--12--------0----------12--|
F|--------11-----------11(bend)---6---------11--11--11-------11b----6--------11------| (5x)
C|------9--------------9-------9---7--7----9----9---9---------9---9--7--7----9-------|
G|---------------------10----------5--------------------------10-----5---------------|
A#|----------------------------------------------------------------------------------|
exibições 337
Acordes para:
    Composição: Chino Moreno / Deftones Colaboração e revisão:
    • Pedro Henrique

    0 comentários

    mostrar mais comentários

    Conseguiu tocar?

    0 tocaram 0 ainda não

    Grave um vídeo tocando Rosemary e mande pra gente!

    00:00 / 00:00
    outros vídeos desta música
    repetir qualidade Automático
    Outros vídeos desta música
    00:00 / 00:00
    Automático
    OK