Cifra Club

RX queen

Deftones

Cifra: Principal (violão e guitarra)
tom: Bb
Intro/Verse: x4
F|--------------|
A|--------------|
D|--------------|
C|--------------|
G|--------------|
C|-0--2-2/9\3~--|

Chorus: x2
 - Guitar 1
F|---------------------|
A|---------------------|
D|-4-4-4-4---7-7-7-7---|
C|-2-2-2-2-0-5-5-5-5-0-|
G|-2-2-2-2-0-5-5-5-5-0-|
C|-2-2-2-2-0-5-5-5-5-0-|

 - Guitar 2
F|-------------------------|
A|-------------------------|
D|-------------------------|
C|-7-7-7-7-0-10-10-10-10-0-|
G|-7-7-7-7-0-10-10-10-10-0-|
C|-7-7-7-7-0-10-10-10-10-0-|

Verse: x4
F|--------------|
A|--------------|
D|--------------|
C|--------------|
G|--------------|
C|-0--2-2/9\3~--|

Chorus: x2
 - Guitar 1
F|---------------------|
A|---------------------|
D|-4-4-4-4---7-7-7-7---|
C|-2-2-2-2-0-5-5-5-5-0-|
G|-2-2-2-2-0-5-5-5-5-0-|
C|-2-2-2-2-0-5-5-5-5-0-|

 - Guitar 2
F|-------------------------|
A|-------------------------|
D|-------------------------|
C|-7-7-7-7-0-10-10-10-10-0-|
G|-7-7-7-7-0-10-10-10-10-0-|
C|-7-7-7-7-0-10-10-10-10-0-|

Bridge: x2?
F|-----------------|
A|-----------------|
D|-----------------|
C|-3-3-3-3-3-3-3-3-|
G|-3-3-3-3-3-3-3-3-|
C|-3-3-3-3-3-3-3-3-|

Verse: x4
F|--------------|
A|--------------|
D|--------------|
C|--------------|
G|--------------|
C|-0--2-2/9\3~--|

Chorus: x4
 - Guitar 1
F|---------------------|
A|---------------------|
D|-4-4-4-4---7-7-7-7---|
C|-2-2-2-2-0-5-5-5-5-0-|
G|-2-2-2-2-0-5-5-5-5-0-|
C|-2-2-2-2-0-5-5-5-5-0-|

 - Guitar 2
F|-------------------------|
A|-------------------------|
D|-------------------------|
C|-7-7-7-7-0-10-10-10-10-0-|
G|-7-7-7-7-0-10-10-10-10-0-|
C|-7-7-7-7-0-10-10-10-10-0-|

Bridge: x2?
F|-----------------|
A|-----------------|
D|-----------------|
C|-3-3-3-3-3-3-3-3-|
G|-3-3-3-3-3-3-3-3-|
C|-3-3-3-3-3-3-3-3-|

Outro: x6?
F|--------------|
A|--------------|
D|--------------|
C|--------------|
G|--------------|
C|-0--2-2/9\3~--|

Outro2?: x2?
D|----------------|
A|-13~~~~--12~~~~-|
F|----------------|
C|----------------|
G|----------------|
C|----------------|

There are some harmonics in the song, I've tried to tab them and I don't know
if Im correct but I think they're on the 17th fret so it should look like this:

D|------------------|
A|------------------|
F|------------------|
C|-17*-17*-17*-17*--|
G|-17*-17*-17*-17*--|
C|-17*-17*-17*-17*--|
00:00 / 00:00
Outros vídeos desta música
Repetir
Outros vídeos desta música
Composição de Deftones
Colaboração e revisão:
  • Rafael Silva
2.954 exibições
    • ½ Tom
    • A
    • Bb
    • B
    • C
    • Db
    • D
    • Eb
    • E
    • F
    • F#
    • G
    • Ab
  • Adicionar à lista

    0 comentários

    Ver todos os comentários

    Conseguiu tocar?

    0 Tocaram 0 Ainda não

    Grave um vídeo tocando RX queen e nos envie!

    Entre para oCifra Club PRO

    Tenha acesso a benefícios exclusivos no App e no Site

    • Chega de anúncios

    • Prioridade de compra em lançamentos

    • Mais recursos no app do Afinador

    • Atendimento Prioritário

    • Descontos nos produtos Cifra Club

    • Ajude a produzir mais conteúdo

    00:00 / 00:00

    Cifra Club Pro

    Aproveite o Cifra Club com benefícios exclusivos e sem anúncios
    Cifra Club Pro
    Aproveite o Cifra Club com benefícios exclusivos e sem anúncios
    OK