Cifra Club

Teething

Deftones

Cifra: Principal (violão e guitarra)
tom: A
Intro:

E|-----------------------5*-------------------------|
B|-----------------------5*----------------------7*-|
G|-----------------------------------------------7*-|
D|--------------------------------------------------|
A|--------------------------------------------------|
D|-5p4-5h6-5p4-4-5p4-5p4---5p4-5h6-5p4-4-5p4-5p4----|

E|-----------------------5*-------------------------|
B|-----------------------5*----------------------7*-|
G|-----------------------------------------------7*-|
D|--------------------------------------------------|  2x
A|-5-4-5-6-5-4-4-5-4-5-4---5-4-5-6-5-4-4-5-4-5-4----|
D|-5p4-5h6-5p4-4-5p4-5p4---5p4-5h6-5p4-4-5p4-5p4----|

Riff Refrão:

E|-------------------------------------------|
B|-------------------------------------------|
G|-------------------------------------------|
D|-------------------------------------------|
A|-x-3-2-x-3-2-x-3-2-x-3-2-x-3-2-x-3-2-x-3-2-| 7x
D|-x-3-2-x-3-2-x-3-2-x-3-2-x-3-2-x-3-2-x-3-2-|

E|---------------|
B|---------------|
G|---------------|
D|---------------|
A|-3-3-3-3-3-3-3-|
D|-3-3-3-3-3-3-3-|
PM . . . . . . .

Verso:

E|-------------|     E|-----------|
B|-------------|     B|-----------|
G|-------------|     G|-----------|
D|-------------|     D|-----------|
A|-5-4-5-6-5-4-| 4x  A|-4-5-4-5-4-|
D|-5p4-5h6-5p4-|     D|-4-5p4-5p4-|

E|---------------5*---------------------------------------------------------------|
B|------------7*-5*---------------------------------------------------------------|
G|------------7*------------------------------------------------------------------|
D|--------------------------------------------------------------------------------|
A|-5-4-5-6-5-4------5-4-5-6-5-4-x--x-x--x--x-x-5-4-5-6-5-4--5-4-5-6-5-4-4-5-4-5-4-|
D|-5p4-5h6-5p4------5p4-5h6-5p4-x--x-x--x--x-x-5p4-5h6-5p4--5p4-5h6-5p4-4-5p4-5p4-|

Ponte:

E|------------------------------|     E|------|      E|---------|
B|------------------------------|     B|------|      B|---------|
G|------------------------------|     G|------|      G|---------|
D|-----9-7-9-----9-7-9-----9-10-|     D|-9/10-|      D|-9-7-9-7-|
A|-----7-5/7-----7-5/7-----7/8--| 8x  A|-7/8--| 14x  A|-7-5-7-5-|
D|-O-O-------0-0-------0-0------|     D|------|      D|---------|

Final:

E|-------|
B|-------|
G|-------|
D|-x-9-7-|
A|-x-7\5-| (Várias vezes)
D|-------|

E|---------------|
B|---------------|
G|---------------|
D|---------------|
A|-3-3-3-3-3-3-3-|
D|-3-3-3-3-3-3-3-|
P.M. . . . . . .
00:00 / 00:00
Outros vídeos desta música
Repetir
Outros vídeos desta música
Composição de Abe Cunningham / Carlos Duarte Moreno / Chi Cheng / Stephen Carpenter
Colaboração e revisão:
  • Pedro Rodrigues
22 exibições
    • ½ Tom
    • A
    • Bb
    • B
    • C
    • Db
    • D
    • Eb
    • E
    • F
    • F#
    • G
    • Ab
  • Adicionar à lista

    0 comentários

    Ver todos os comentários

    Conseguiu tocar?

    0 Tocaram 0 Ainda não

    Grave um vídeo tocando Teething e nos envie!

    Entre para oCifra Club PRO

    Tenha acesso a benefícios exclusivos no App e no Site

    • Chega de anúncios

    • Prioridade de compra em lançamentos

    • Mais recursos no app do Afinador

    • Atendimento Prioritário

    • Descontos nos produtos Cifra Club

    • Ajude a produzir mais conteúdo

    00:00 / 00:00

    Cifra Club Pro

    Aproveite o Cifra Club com benefícios exclusivos e sem anúncios
    Cifra Club Pro
    Aproveite o Cifra Club com benefícios exclusivos e sem anúncios
    OK