Cifra Club

Turn The Lights Out

Delain

Cifra: Principal (violão e guitarra)
Selo Cifra Club: esta cifra foi revisada para atender aos critérios oficiais da nossa Equipe de Qualidade.
tom: D
E|---------------------------------|
B|---------------------------------|
G|---------------------------------|
D|--6---8-------5---6---8---5---5--|
A|--4---6---3---3---4---6---3---3--|
E|----------1----------------------|


[Part 2] 

(01:04)

Guitar 1:
E|----------------------------------------------------|------------------------------------------------------|
B|----------------------------------------------------|------------------------------------------------------|
G|----------------------------------------------------|------------------------------------------------------|
D|-6-6-6-6-6-6--8-8-8-8-8-8---------------5-5-5-5-5-5-|-6-6-6-6-6-6--8-8-8-8-8-8--5-5-5-5-5-5--5-5-5-5-5-5-5-|
A|-4-4-4-4-4-4--6-6-6-6-6-6--3-3-3-3-3-3--3-3-3-3-3-3-|-4-4-4-4-4-4--6-6-6-6-6-6--3-3-3-3-3-3--3-3-3-3-3-3-3-|
E|---------------------------1-1-1-1-1-1--------------|------------------------------------------------------|
   - -   - -    - -   - -    - -   - -    - -   - -     - -   - -    - -   - -    - -   - -    - -   - -  

Guitar 2:             let ring   Guitar 3:
E|--16p14-16h18-| A|--20-|    A|--16p14-16h18-|
B|--------------| E|-----|    E|--------------|
G|--------------| x13 C|-----|    C|--------------| x3 play as last note of guitar 2 rings
D|--------------| G|-----|    G|--------------|
A|--------------| D|-----|    D|--------------|
E|--------------| A|-----|    A|--------------|


[Verse 1] 

(come in at 01:34):

E|-------------------------------------------|-----------------------------------------------|
B|-------------------------------------------|-----------------------------------------------|
G|-------------------------------------------|-----------------------------------------------|
D|-------------------------------------------|-------------------------------------------8p7-|
A|-----------------------------------------6-|---------------------------------------3h5-----|
E|--0-0--0--0x-0-0-0--0x-0-0-0--0x-0-0-0-4---|--0-0--0--0x-0-0-0--0x-0-0-0--0x-0-0-0---------|
                                                                                     - - 
E|---------------------------|------------------------------|
B|---------------------------|------------------------------|
G|---------------------------|------------------------------|
D|--6--6--6-6-6--6--6--6-6-6-|--8--8--8-8-8--8--8--8-8-8----|
A|--4--4--4-4-4--4--4--4-4-4-|--6--6--6-6-6--6--6--6-6-6----|
E|---------------------------|------------------------------|
    -  -  - - -  -  -  - - -    -  -  - - -  -  -  - - - 

E|---------------------------|-------------------|
B|---------------------------|-------------------|
G|---------------------------|-------------------|
D|--6--6--6-6-6--6--6--6-6-6-|--8-8-8-8--8-8-8-8-|
A|--4--4--4-4-4--4--4--4-4-4-|--6-6-6-6--6-6-6-6-|
E|---------------------------|--0-0-0-0----------|
    -  -  - - -  -  -  - - -

Repeat whole chorus (01:49)


[Bridge part 1] 

(02:19)

A|---------------------|-----------------|-------------------------------|---------|
E|---------------------|-----------------|-------------------------------|---------|
C|---------------------|-----------------|-------------------------------|---------|
G|---------------------|-----------------|-------------------------------|---------|
D|-1-1-1-4-1-1-1-1-4-1-|-1-1-2-1-1-2-4-2-|-2-2-2-5-2-2-2-2-5-2-2-2-2-5-2-|-2-2-2-2-|
A|-1-1-1-4-1-1-1-1-4-1-|-1-1-2-1-1-2-4-2-|-2-2-2-5-2-2-2-2-5-2-2-2-2-5-2-|-2-2-2-2-|
   - - - - - - - - - -   - - - - - - - -   - - - - - - - - - - - - - - -   - - - - 

E|-----------------------------------------------------|
B|-----------------------------------------------------|
G|-----------------------------------------------------|
D|-----------------------------------------------------|
A|-----------------------------------------3-3-3-3-3-3-|
E|--0--0-0--0-3--0--0-0--0-3--0--0-0--0-3--1-1-1-1-1-1-|

E|-----------------------------------------------------|
B|-----------------------------------------------------|
G|-----------------------------------------------------|
D|-----------------------------------------------------|
A|-----------------------------------------4-4-4-4-4-4-|
E|--1--1-1--1-2--1--1-1--1-2--1--1-1--1-2--2-2-2-2-2-2-|

[Bridge part 2] 

(02:34):

Guitar 1:
E|-------------------------------------------|
B|-------------------------------------------|
G|-------------------------------------------|
D|--------------11---6-----------------------|
A|--3---6---5---9----4---6---5--5-5-5--5-5-4-|
E|--1---4---3------------4---3--3-3-3--3-3-2-|
                                - - -  - - - 

E|---------------------------------------------------------------------------------------|
B|---------------------------------------------------------------------------------------|
G|---------------------------------------------------------------------------------------|
D|---------------------------------------------------------------------------------------|
A|---------------------------------------------------------------------------------------|
E|--1-1-1-1--1--1-1--1-1--1--1-1-1-1--1--1-1-1-1--1--1-1-1-1--1--1-1--1-1--1--1-1-1-1--1-|
    - - - -  -  - -  - -  -  - - - -  -  - - - -  -  - - - -  -  - -  - -  -  - - - -  -

E|-----------------------------------------------------|
B|-----------------------------------------------------|
G|-----------------------------------------------------|
D|--6-6-6-6--6--6-6-6-6--6--6-6--6-6--6--5-5-5-5--5----|
A|--4-4-4-4--4--4-4-4-4--4--4-4--4-4--4--3-3-3-3--3----|
E|-----------------------------------------------------|
    - - - -  -  - - - -  -  - -  - -  -  - - - -  -

E|----------------------------------------|
B|----------------------------------------|
G|----------------------------------------|
D|----------------------------------------|
A|--4-4--4-4--4--4-4--4-4--4--4-4-4-4-4-4-|
E|--2-2--2-2--2--2-2--2-2--2--2-2-2-2-2-2-|
    - -  - -  -  - -  - -  -

Guitar 2:
E|--13--16--15--21--20--16h18-16--16--15-|------------------16h18-16-----| Sustain the notes
B|---------------------------------------|--6--9--8--14--13----------8*--|
G|---------------------------------------|-------------------------------|
D|---------------------------------------|-------------------------------|
A|---------------------------------------|-------------------------------|
E|---------------------------------------|-------------------------------|

Guitar 3:
E|---------------------16h18-16------| Starts at second bar of guitar 2 (acts as a harmony)
B|-----------------------------------|
G|--10--13--12--18--17----------12*--|
D|-----------------------------------|
A|-----------------------------------|
E|-----------------------------------|

Repeat whole chorus (03:07)


[Outro] 

(03:37):

E|----------------------------------------------------------------------|
B|----------------------------------------------------------------------|
G|----------------------------------------------------------------------|
D|----------------------------------------------------------------------|
A|--------3-3-3-------3-3-3-3-3-3-3-3-------3-3-3-------3-3-3-3-3-3-3-3-|
E|--1-1-1-1-1-1-1-1-1-1-1-1-1-1-1-1-1-1-1-1-1-1-1-1-1-1-1-1-1-1-1-1-1-1-|
    - - -       - - -                 - - -       - - - 

E|-------------------------------------------|-----------------------------------------------------------|
B|-------------------------------------------|-----------------------------------------------------------|
G|-------------------------------------------|-----------------------------------------------------------|
D|--6-6-6--6-6--6-6-6--6-6--6-6-6--6-6-6-6-6-|-----------------------------------------------------------|
A|--4-4-4--4-4--4-4-4--4-4--4-4-4--4-4-4-4-4-|--8-8-8--8-8--8-8-8--8-8--10-10-10--10-10--10-10-10--10-10-|
E|-------------------------------------------|--6-6-6--6-6--6-6-6--6-6--8--8--8---8--8---8--8--8---8--8--|
    - - -       - - -       - - -               - - -       - - -       -  -  -          -  -  -   

E|----------------------------------------------------|
B|----------------------------------------------------|
G|----------------------------------------------------|
D|----------------------------------------------------|
A|--------------------------------------------3-3-3-3-|
E|--0--0x-0-0-0-3--0-0x-0-0-0-3--0-0x-0-0-0-3-1-1-1-1-| x2

E|----------------------------------------------------|
B|----------------------------------------------------|
G|----------------------------------------------------|
D|----------------------------------------------------|
A|--------------------------------------------3-3-3-3-|
E|--1-1x-1-1-1-4--1-1x-1-1-1-4--1-1x-1-1-1-4--1-1-1-1-| x1.5 times don't play second half 2nd time around
                                                            (play until second C# note 2nd time around)
E|-------------------------|
B|-------------------------|
G|-------------------------|
D|--5-5-5--5-6--5-5-5--5-6-|
A|--3-3-3--3-4--3-3-3--3-4-|
E|-------------------------|
    - - -       - - -


****************************
|h  hammer-on 
|p  pull-off  
|-  palm mute
|x  muted note
|*  pinch harmonic
****************************
Outros vídeos desta música
    16 exibições
      • ½ Tom
      • A
      • Bb
      • B
      • C
      • Db
      • D
      • Eb
      • E
      • F
      • F#
      • G
      • Ab
    • Adicionar à lista

    Afinação da cifra

    Afinador online

      0 comentários

      Ver todos os comentários

      Entre para o Cifra Club PRO

      Tenha acesso a benefícios exclusivos no App e no Site

      • Chega de anúncios

      • Badges exclusivas

      • Mais recursos no app do Afinador

      • Atendimento Prioritário

      • Aumente seu limite de lista

      • Ajude a produzir mais conteúdo

      Cifra Club Pro

      Aproveite o Cifra Club com benefícios exclusivos e sem anúncios
      Cifra Club Pro
      Aproveite o Cifra Club com benefícios exclusivos e sem anúncios
      Ops (: Contenido disponible sólo en portugués.
      OK