Cifra Club

Abre los hojos

Delux

Cifra: Principal (violão e guitarra)
tom: A
intro:

guitarra 1
E|-12-0-0-5-0-0-10-0-0-9-0-5-7-|-12-0-0-5-0-0-10-0-0-9-0-5-7-|
B|-----------------------------|-----------------------------|
G|-----------------------------|-----------------------------|
D|-----------------------------|-----------------------------|
A|-----------------------------|-----------------------------|
E|-----------------------------|-----------------------------|

guitarra 2(no apages el sonido)
E|-----------------------------|-----------------------------|
B|-----------------------------|-----------------------------|
G|-----------------------------|-7---------------------------|
D|-7---------------------------|-7---------------------------|
A|-7---------------------------|-5---------------------------|
E|-5---------------------------|-----------------------------|

guitarra 1
E|-12-0-0-5-0-0-10-0-0-9-0-5-7-|-12-0-0-5-0-0-10-0-0-9-0-5-7-|
B|-----------------------------|-----------------------------|
G|-----------------------------|-----------------------------|
D|-----------------------------|-----------------------------|
A|-----------------------------|-----------------------------|
E|-----------------------------|-----------------------------|

guitarra 2(no apages el sonido)
E|-----------------------------|-----------------------------|
B|-----------------------------|-----------------------------|
G|-----------------------------|-----------------------------|
D|-4---------------------------|-2---------------------------|
A|-4---------------------------|-2---------------------------|
E|-2---------------------------|-0---------------------------|
*con la guitarra 2 se toca el slide
E|-17-17-16-16-15-15-14-14-13-13-12-12-11-11-10-10-9-9-|
es como un slide del traste 17 / 9 pero es muy rapido y cada traste se toca 2 veces)

guitarra 1
E|-12-0-0-5-0-0-10-0-0-9-0-5-7-|-12-0-0-5-0-0-10-0-0-9-0-5-7-|
B|-----------------------------|-----------------------------|
G|-----------------------------|-----------------------------|
D|-----------------------------|-----------------------------|
A|-----------------------------|-----------------------------|
E|-----------------------------|-----------------------------|


guitarra 2*se toca un poco rapido*
            (x4)                          (x4)
E|-----------------------------|-----------------------------|
B|-----------------------------|-----------------------------|
G|-----------------------------|-----------------------------|
D|-----------------------------|-7---7-7-7-7-7-7-------------|
A|-7---7-7-7-7-7-7-------------|-5---5-5-5-5-5-5-------------|
E|-5---5-5-5-5-5-5-------------|-----------------------------|

guitarra 1
E|-12-0-0-5-0-0-10-0-0-9-0-5-7-|-12-0-0-5-0-0-10-0-0-9-0-10-9|
B|-----------------------------|-----------------------------|
G|-----------------------------|-----------------------------|
D|-----------------------------|-----------------------------|
A|-----------------------------|-----------------------------|
E|-----------------------------|-----------------------------|

guitarra 2*se toca un poco rapido*
            (x4)                          (x4)
E|-----------------------------|-----------------------------|
B|-----------------------------|-----------------------------|
G|-----------------------------|-----------------------------|
D|-----------------------------|-2---2-2-2-2-2-2-------------|
A|-4---4-4-4-4-4-4-------------|-0---0-0-0-0-0-0-------------|
E|-2---2-2-2-2-2-2-------------|-----------------------------|

 hasta aqui llega la intro
E|-----------------------------------------------------------------------|

guitarra 2

E|------------------------------------|----------------------------------|
B|------------------------------------|----------------------------------|
G|------------------------------------|----------------------------------|
D|--------------------7---7-7-7-7-7-7-|-9---9-9-9-9-9-9---7---7-7-7-7-7-7|
A|-7---7-7-7-7-7-7----5---5-5-5-5-5-5-|-7---7-7-7-7-7-7---5---5-5-5-5-5-5|
E|-5---5-5-5-5-5-5--------------------|----------------------------------|

E|------------------------------------|-----------------------------------|
B|------------------------------------|-----------------------------------|
G|------------------------------------|-----------------------------------|
D|-------------------7---7-7-7-7-7-7--|-9---9-9-9-9-9-9----7---7-7-7-7-7-7|
A|-7---7-7-7-7-7-7---5---5-5-5-5-5-5--|-7---7-7-7-7-7-7----5---5-5-5-5-5-5|
E|-5---5-5-5-5-5-5--------------------|-----------------------------------|


cambia el ritmo...pero sigue la guitarra 2

E|---------------------------------|---------------------------------|
B|---------------------------------|---------------------------------|
G|----------------7---7---7---7----|----------------9---9---9---9----|
D|-7-----7--------7---7---7---7----|-4-----4--------9---9---9---9----|
A|-7-----7--------5---5---5---7----|-4-----4--------7---7---7---7----|
E|-5-----5-------------------------|-2-----2-------------------------|

E|---------------------------------|---------------------------------|
B|---------------------------------|---------------------------------|
G|----------------7---7---7---7----|----------------9---9---9---9----|
D|-7-----7--------7---7---7---7----|-4-----4--------9---9---9---9----|
A|-7-----7--------5---5---5---7----|-4-----4--------7---7---7---7----|
E|-5-----5-------------------------|-2-----2-------------------------|

de nuevo el cambio de ritmo con la misma guitarra 2

E|------------------------------------|----------------------------------|
B|------------------------------------|----------------------------------|
G|------------------------------------|----------------------------------|
D|--------------------7---7-7-7-7-7-7-|-9---9-9-9-9-9-9---7---7-7-7-7-7-7|
A|-7---7-7-7-7-7-7----5---5-5-5-5-5-5-|-7---7-7-7-7-7-7---5---5-5-5-5-5-5|
E|-5---5-5-5-5-5-5--------------------|----------------------------------|

E|------------------------------------|----------------------------------|
B|------------------------------------|----------------------------------|
G|------------------------------------|----------------------------------|
D|--------------------7---7-7-7-7-7-7-|-9---9-9-9-9-9-9---7---7-7-7-7-7-7|
A|-7---7-7-7-7-7-7----5---5-5-5-5-5-5-|-7---7-7-7-7-7-7---5---5-5-5-5-5-5|
E|-5---5-5-5-5-5-5--------------------|----------------------------------|

otro cambio de ritmo con la misma guitarra 2

E|---------------------------------|---------------------------------|
B|---------------------------------|---------------------------------|
G|----------------7---7---7---7----|----------------9---9---9---9----|
D|-7-----7--------7---7---7---7----|-4-----4--------9---9---9---9----|
A|-7-----7--------5---5---5---7----|-4-----4--------7---7---7---7----|
E|-5-----5-------------------------|-2-----2-------------------------|

E|---------------------------------|---------------------------------|
B|---------------------------------|---------------------------------|
G|----------------7---7---7---7----|----------------9---9---9---9----|
D|-7-----7--------7---7---7---7----|-4-----4--------9---9---9---9----|
A|-7-----7--------5---5---5---7----|-4-----4--------7---7---7---7----|
E|-5-----5-------------------------|-2-----2-------------------------|

gente!!! lo que toca la guitarra 1 es el solo eee...
(aunke la guitarra dos sigue tocando )lo saque
perfectamente bien... a ver si les gusta:

guitarra 1 (solo)
E|----------------------------------------|----------------------------------------|
B|----------------------------------------|----------------------------------------|
G|----9-----------------7--------6--------|----7-----------------9--------7--------|
D|----------------------------------------|----------------------------------------|
A|----------------------------------------|----------------------------------------|
E|----------------------------------------|----------------------------------------|
guitarra 2(acompaña)

E|----------------------------------------|----------------------------------------|
B|----------------------------------------|----------------------------------------|
G|-------------7-7-7----------------------|-------------7-7-7----------------------|
D|----7-7-7----7-7-7----4-4-4----2-2-2----|----7-7-7----7-7-7----4-4-4----2--------|
A|----7-7-7----5-5-5----4-4-4----2-2-2----|----7-7-7----5-5-5----4-4-4----2--------|
E|----5-5-5-------------2-2-2----0-0-0----|----5-5-5-------------2-2-2----0--------|

guitarra 1 (solo)         las notas dentro de un () se tocan opcionalmente
E|----------------------------------------|----------------------------------------|
B|----------------------------------------|----------------------------------------|
G|----6------(9)(9)(9)--(7)(7)(5)---------|----7/9------6--------6-7-6-------------|
D|-----------(9)(9)(9)--(7)(7)(5)---------|-------------------------------9-7------|
A|-----------(7)(7)(7)--(5)(5)(5)---------|-----------------------------------9----|
E|----------------------------------------|----------------------------------------|
guitarra 2 (acompaña)
E|----------------------------------------|-----------------------------------------|
B|----------------------------------------|-----------------------------------------|
G|----9-9-9----7-7-7-------------7-7-7----|-------------7-7-7-----------------------|
D|----9-9-9----7-7-7----7-7-7----7-7-7----|----7-7-7----7-7-7----4-4-4----2-2-2-----|
A|----7-7-7----5-5-5----7-7-7----5-5-5----|----7-7-7----5-5-5----4-4-4----2-2-2-----|
E|----------------------5-5-5-------------|----5-5-5-------------2-2-2----0-0-0-----|

guitarra 1 (solo)
E|----------------------------------------|----------------------------------------|
B|----------------------------------------|-------------------7--------------------|
G|--------6--7--9--7--6-7--6--------------|----------6--7--9-----9-----------------|
D|---7-9----------------------------------|-------7--------------------------------|
A|----------------------------------------|----9-----------------------------------|
E|----------------------------------------|----------------------------------------|
guitarra 2(acompaña)

E|----------------------------------------|----------------------------------------|
B|----------------------------------------|----------------------------------------|
G|-------------7-7-7----------------------|----9-9-9----7-7-7-------------7-7-7----|
D|----7-7-7----7-7-7----4-4-4----4--------|----9-9-9----7-7-7----7-7-7----7-7-7----|
A|----7-7-7----5-5-5----4-4-4----4--------|----7-7-7----5-5-5----7-7-7----5-5-5----|
E|----5-5-5-------------2-2-2----2--------|----------------------5-5-5-------------|


guitarra 1 (solo)

E|----------------------------------------|
B|----------------------------------------|
G|----9--7--6-----9--7--6-----------------|
D|-------------9-----------9--------------|
A|----------------------------------------|
E|----------------------------------------|
guitarra 2 (acompaña)
                                            (no apages el sonido)
e----------------------------------------|----------------------------------------
b----------------------------------------|----------------------------------------
g-------------7-7-7----------------------|----------------------------------------
d----7-7-7----7-7-7----4-4-4----2-2-2----|----7-----------------------------------
a----7-7-7----5-5-5----4-4-4----2-2-2----|----5-----------------------------------
E----5-5-5-------------2-2-2----0-0-0----|----5-----------------------------------
E|-----------------------------------------------------------------------|-----------
YA!!! listo eso fue el solo vdd que no esta tan dificil??!...en esta parte se toca el bajo
 con la bateria y luego la guitarra luego bajo con la pila  de nuevo,(ES COMO UNO B  Y UNO NO...
OSEA cuando el bajo toca la guitarra no)
despues la rola sige normal voi a poner las notas del bajo para que las tomen de referencia...

                                              guitarra 2
                                         no apages el sonido
                                 |e--------------------------------------------
*bajo*                           |b--------------------------------------------
E|---------------------------------| g--------------------------------------------
B|---------------------------------| d----7---------------------------------------
G|-7---7-7-7-7-7-7---5---5-5-5-5-5-| a----7---------------------------------------
D|---------------------------------| E----5---------------------------------------

*bajo*
E|---------------------------------|
B|---------------------------------|
G|-7---7-7-7-7-7-7---5---5-5-5-5-5-|
D|---------------------------------|

al oir la rola se van a dar cuenta
E|-----------------------------------------------------------------------|----
guitarra 2
E|---------------------------------|---------------------------------|
B|---------------------------------|---------------------------------|
G|----------------7---7---7---7----|----------------9---9---9---9----|
D|-7-----7--------7---7---7---7----|-4-----4--------9---9---9---9----|
A|-7-----7--------5---5---5---5----|-4-----4--------7---7---7---7----|
E|-5-----5-------------------------|-2-----2-------------------------|

E|---------------------------------|---------------------------------|
B|---------------------------------|---------------------------------|
G|----------------7---7---7---7----|----------------9---9---9---9----|
D|-7-----7--------7---7---7---7----|-4-----4--------9---9---9---9----|
A|-7-----7--------5---5---5---5----|-4-----4--------7---7---7---7----|
E|-5-----5-------------------------|-2-----2-------------------------|
--------------------------------------------------------------------

cambio de ritmo pero con la misma guitarra 2
escuchen la rola para llevar el tiempo bien... esta bn facil

E|-------------------------------------------------------------------|
B|-------------------------------------------------------------------|
G|-------7-----------------------7-----------------------------------|
D|-7-----7-----4-----2-----7-----7-----4-----2-------2---------------|
A|-7-----5-----4-----2-----7-----5-----4-----2-----------------------|
E|-5-----------2-----0-----5-----------2-----0-----------------------|
E|--------------------------------------------------------------------|

esto ia es el fin...
guitarra 1
E|-12-0-0-5-0-0-10-0-0-9-0-5-7-|-12-0-0-5-0-0-10-0-0-9-0-5-7-|
B|-----------------------------|-----------------------------|
G|-----------------------------|-----------------------------|
D|-----------------------------|-----------------------------|
A|-----------------------------|-----------------------------|
E|-----------------------------|-----------------------------|

guitarra 2*se toca un poco rapido*
            (x4)                          (x4)
E|-----------------------------|-----------------------------|
B|-----------------------------|-----------------------------|
G|-----------------------------|-----------------------------|
D|-----------------------------|-7---7-7-7-7-7-7-------------|
A|-7---7-7-7-7-7-7-------------|-5---5-5-5-5-5-5-------------|
E|-5---5-5-5-5-5-5-------------|-----------------------------|

guitarra 1
E|-12-0-0-5-0-0-10-0-0-9-0-5-7-|-12-0-0-5-0-0-10-0-0-9-0-10-9|
B|-----------------------------|-----------------------------|
G|-----------------------------|-----------------------------|
D|-----------------------------|-----------------------------|
A|-----------------------------|-----------------------------|
E|-----------------------------|-----------------------------|

guitarra 2*se toca un poco rapido*
            (x4)                          (x4)
E|-----------------------------|-----------------------------|
B|-----------------------------|-----------------------------|
G|-----------------------------|-----------------------------|
D|-----------------------------|-2---2-2-2-2-2-2-------------|
A|-4---4-4-4-4-4-4-------------|-0---0-0-0-0-0-0-------------|
E|-2---2-2-2-2-2-2-------------|-----------------------------|
------------------------------------------------------------
este es el gran final se tocan las 2 guitarras

guitarra 1
E|----------------------------------------|
B|----------------------------------------|
G|----------------------------------------|
D|-------7-7------7-7---------------------|
A|-5-5-5------5-5-------------------------|
E|--------------------4-5-----------------|

guitarra 2
E|----------------------------------------|
B|----------------------------------------|
G|-7----------7---------------------------|
D|-7----------7---------------------------|
A|-5----------5-------6-7-----------------|
E|--------------------4-5-----------------|
eso fue todoooooooooooo fin...

espero que les guste y si tienen alguna duda lo que sea!!
me escriben...
le mando saludos y un besote(K) a mi bb preciosa de tijuana
(F)ASTRID(F) te kiero chikita!!! love ya (L)
Composição de Delux
    • ½ Tom
    • A
    • Bb
    • B
    • C
    • Db
    • D
    • Eb
    • E
    • F
    • F#
    • G
    • Ab
  • Adicionar à lista

    0 comentários

    Ver todos os comentários

    Conseguiu tocar?

    0 Tocaram 0 Ainda não

    Grave um vídeo tocando Abre los hojos e nos envie!

    00:00 / 00:00
    Outros vídeos desta música
    Repetir Qualidade Automático
    Outros vídeos desta música
    00:00 / 00:00
    Automático

    Cifra Club Pro

    Aproveite o Cifra Club com benefícios exclusivos e sem anúncios
    Cifra Club Pro
    Aproveite o Cifra Club com benefícios exclusivos e sem anúncios
    OK