Cifra Club

Aprenda

Away

Delux

Cifra: Principal (violão e guitarra)
tom: Bm
INTRO

GTR1                   GTR2
E|--------------------|------------------| |
B|-10xxxxxx-10xxxx-10-| 10xxxx-10xxxxxx-10||
G|-x-xxxxxx-x-xxxx-x--| x-xxxx-x-xxxxxx-x-||
D|-7-xxxxxx-7-xxxx-7--| 7-xxxx-7-xxxxxx-7-||
A|--------------------|------------------| |
E|--------------------|------------------| |
                          distor
                GTR2
E|------------------------------|
B|------------------------------|
G|--------9999999-------7777777-|
D|-7777777999999944444447777777-|
A|-7777777777777744444445555555-|
E|-5555555-------2222222--------|

E|---------------------------------------------|
B|---------------------------------------------|
G|--------9999999-11-11-11-11-11-11-11-7777777-|
D|-77777779999999-11-11-11-11-11-11-11-7777777-|
A|-77777777777777-9--9--9--9--9--9--9--5555555-|
E|-5555555-------------------------------------|

GTR1
E|---------------------------7----------|
B|--------------10-9-7777-7-9-9-7-10----|
G|------6-7-9999--------------------9-7-|
D|--7777--------------------------------|
A|--------------------------------------|
E|--------------------------------------|

E|-----------------------------------------|
B|-----------------------------------------|
G|---------------------99-77-66------------|
D|-7777-12-9999-12-7777---------99-77-66-7-|
A|-----------------------------------------|
E|-----------------------------------------|


verso1

E|-----------------------------|
B|-----------------------------|
G|-------9999999-------7777777-|
4|7777777999999944444447777777-|
5|7777777777777744444445555555-|
6|5555555-------2222222--------|
  ............................P.M.
E|---------------------------------------------|
B|---------------------------------------------|
G|--------9999999-11-11-11-11-11-11-11-7777777-|
D|-77777779999999-11-11-11-11-11-11-11-7777777-|
A|-77777777777777-9--9--9--9--9--9--9--5555555-|
E|-5555555-------------------------------------|
  ........................................... P.M.


verso 2

E|-----------------------------|
B|-----------------------------|
G|-------9999999-------7777777-|
4|7777777999999944444447777777-|
5|7777777777777744444445555555-|
6|5555555-------2222222--------|

E|---------------------------------------|
B|---------------------------------------|
G|--------9999999-11-11-11-11-11-11-11-7-|
D|-77777779999999-11-11-11-11-11-11-11-7-|
A|-77777777777777-9--9--9--9--9--9--9--5-|
E|-5555555-------------------------------|


Coro

E|-----------------------------| |
B|-----------------------------| |
G|-------9999999-------7777777-| |
4|7777777999999944444447777777-||
5|7777777777777744444445555555-||
6|5555555-------2222222--------||
  .......P.M.   ....... P.M.

E|---------------------------------------------|
B|---------------------------------------------|
G|--------9999999-11-11-11-11-11-11-11-7777777-|
D|-77777779999999-11-11-11-11-11-11-11-7777777-|
A|-77777777777777-9--9--9--9--9--9--9--5555555-|
E|-5555555-------------------------------------|

E|-----------------------------|
B|-----------------------------|
G|-------9999999-------7777777-|
4|7777777999999944444447777777-|
5|7777777777777744444445555555-|
6|5555555-------2222222--------|
  .......P.M.   ....... P.M.
E|---------------------------------------|
B|---------------------------------------|
G|--------9999999-11-11-11-11-11-11-11-7-|
D|-77777779999999-11-11-11-11-11-11-11-7-|
A|-77777777777777-9--9--9--9--9--9--9--5-|
E|-5555555-------------------------------|

GTR1
E|------------------------------|
B|------------------------------|
G|-------9----9----99-7-6-------|
D|--7777--9999-7777------9-7-6--|
A|------------------------------|
E|------------------------------|

E|-----------------------------------------|
B|-----------------------------------------|
G|---------------------99-77-66------------|
D|-7777-12-9999-14-7777---------99-77-66-7-|
A|-----------------------------------------|
E|-----------------------------------------|


verso 3
  Gtr1                            Gtr2
E|---------------------------| |------------|
B|-10xxxx-10xxx-10xxxx-10-xxx| |------------|
G|-x-xxxx-x-xxx-x-xxxx-x--xxx| x2|------------|
D|-7-xxxx-7-xxx-7-xxxx-7--xxx| |------------|
A|---------------------------| |-//////////-|
E|---------------------------| |------------|

E|-----------------------------|
B|-----------------------------|
G|-------9999999-------7777777-|
4|7777777999999944444447777777-|
5|7777777777777744444445555555-|
6|5555555-------2222222--------|

E|---------------------------------------|
B|---------------------------------------|
G|--------9999999-11-11-11-11-11-11-11-7-|
D|-77777779999999-11-11-11-11-11-11-11-7-|
A|-77777777777777-9--9--9--9--9--9--9--5-|
E|-5555555-------------------------------|


coro


E|-----------------------------| |
B|-----------------------------| |
G|-------9999999-------7777777-| |
4|7777777999999944444447777777-||
5|7777777777777744444445555555-||
6|5555555-------2222222--------||
  .......P.M.   ....... P.M.

E|---------------------------------------------|
B|---------------------------------------------|
G|--------9999999-11-11-11-11-11-11-11-7777777-|
D|-77777779999999-11-11-11-11-11-11-11-7777777-|
A|-77777777777777-9--9--9--9--9--9--9--5555555-|
E|-5555555-------------------------------------|

E|-----------------------------|
B|-----------------------------|
G|-------9999999-------7777777-|
4|7777777999999944444447777777-|
5|7777777777777744444445555555-|
6|5555555-------2222222--------|
  .......P.M.   ....... P.M.
E|---------------------------------------|
B|---------------------------------------|
G|--------9999999-11-11-11-11-11-11-11-7-|
D|-77777779999999-11-11-11-11-11-11-11-7-|
A|-77777777777777-9--9--9--9--9--9--9--5-|
E|-5555555-------------------------------|

Interludio

Gtr2
E|-------------------|
B|-------------------|
G|-------------------| X15
D|-------------------|
A|-0-0-7-5-000-4h5-4-|
E|-------------------|
Gtr2                     Gtr1
E|-------------------------------------------------|
B|-15h17-14h15-17-14-10h12-10-14-10h12-14h15-12h14-|
G|-------------------------------------------------| x2
D|-------------------------------------------------|
A|-------------------------------------------------|
E|-------------------------------------------------|


Gtr3

E|-------------------------------------| |
B|-------------------------------------| |
G|---------------------------7777777---| |
4|777777-7~222222-2~444444-4~7777777---||
5|777777-7~222222-2~444444-4~5555555---||
6|555555-5~000000-0~222222-2~----------||
  ......   ......   ......  P.M.

E|--------------------------------------| |
B|--------------------------------------| |
G|----------9999999-------------7777777-| |x2
4|7777777---9999999---4444444---7777777-||
5|7777777---7777777---4444444---5555555-||
6|5555555-------------2222222-----------||

coro 3

E|-----------------------------|
B|-----------------------------|
G|-------9999999-------7777777-|
4|7777777999999944444447777777-|
5|7777777777777744444445555555-|
6|5555555-------2222222--------|
  ............................ P.M.

E|---------------------------------------------|
B|---------------------------------------------|
G|--------9999999-11-11-11-11-11-11-11-7777777-|
D|-77777779999999-11-11-11-11-11-11-11-7777777-|
A|-77777777777777-9--9--9--9--9--9--9--5555555-|
E|-5555555-------------------------------------|

E|-----------------------------|
B|-----------------------------|
G|-------9999999-------7777777-|
4|7777777999999944444447777777-|
5|7777777777777744444445555555-|
6|5555555-------2222222--------|
  ............................P.M.

E|------------------------------------------|
B|------------------------------------------|
G|--------9999999-11-11-11-11-11-11-11-7----|
D|-77777779999999-11-11-11-11-11-11-11-7--7-|
A|-77777777777777-9--9--9--9--9--9--9--5--7-|
E|-5555555--------------------------------5-|




letra
Intro
Verso 1:
Yo se lo que me dijiste a mi
no fue para herirme
y se que nada podra ser igual

Verso 2:
Y piensas que todo es tu culpa
en realidad yo soy
el que empiezo alucinar

CORO:
Yo se, yo se que algun dia volveremos
Te jurare, que por fin estaremos
juntos otra vez

Yo se, yo se que algun dia volveremos
Te jurare, que por fin estaremos
juntos otra vez

no, no los dos

Intro 2

Verso 3

Dicen que nadie puede jurar
ante la distancia
tal vez podriamos ser la exepcion

Y tu crees que no va a resular
que no ves que nuestro amor
se va a multiplicar.

CORO:
Yo se, yo se que algun dia volveremos
Te jurare, que por fin estaremos
juntos otra vez

Yo se, yo se que algun dia volveremos
Te jurare, que por fin estaremos
juntos otra vez
Composição de Serena Radaelli
    • ½ Tom
    • Am
    • Bbm
    • Bm
    • Cm
    • C#m
    • Dm
    • Ebm
    • Em
    • Fm
    • F#m
    • Gm
    • G#m
  • Adicionar à lista

    0 comentários

    Ver todos os comentários

    Conseguiu tocar?

    0 Tocaram 0 Ainda não

    Grave um vídeo tocando Away e nos envie!

    00:00 / 00:00
    Outros vídeos desta música
    Repetir Qualidade Automático
    Outros vídeos desta música
    00:00 / 00:00
    Automático

    Cifra Club Pro

    Aproveite o Cifra Club com benefícios exclusivos e sem anúncios
    Cifra Club Pro
    Aproveite o Cifra Club com benefícios exclusivos e sem anúncios
    OK