Cifra Club

Aprenda

Como estás

Delux

Cifra: Principal (violão e guitarra)
tom: A
Intro

Empieza el bajo con y luego luego las dos guitarras (limpio)

Bajo
A|--5~-------------5| ½-9~-------------10~----------10½-12~-----------12½             X2
Guitarra 1
E|------------------| ½----------------½----------------½-----------------½
B|------------------| ½----------------½----------------½-----------------½
G|------------------| ½----------------½----------------½-----------------½
D|---0-4-0-5-0-0-4-0| ½-0-5-0-4-0-0-5--0-4-0-5-0-0-4--0-5-0-4-0-0-2-0-½             X2
A|------------------| ½----------------½----------------½-----------------½
E|------------------| ½----------------½----------------½-----------------½
Guitarra 2
E|----2-------------| ½------2---------½-----2-----------½----2-----------½
B|-3-----3~---------| ½-3-------3~-----½-3--------3~-----½-3-------3~-----½             X2
G|------------------| ½----------------½-----------------½----------------½
D|------------------| ½----------------½-----------------½----------------½
A|------------------| ½----------------½-----------------½----------------½
E|------------------| ½----------------½-----------------½----------------½

Las dos guitarras con PM  escuchar para entender el PM

E|------------------------------------------------------------------|
B|------------------------------------------------------------------|
G|-7777777777777777-11-11-11-11-11-11-11-11-11-11-11-11-11-11-11-11-|
D|-7777777777777777-11-11-11-11-11-11-11-11-11-11-11-11-11-11-11-11-|
A|-5555555555555555--9--9--9--9--9--9--9--9--9--9--9--9--9--9-9--9--|
E|------------------------------------------------------------------|

E|-------------------------------------------------------------------------------------------------| ½
B|-------------------------------------------------------------------------------------------------| ½
G|-12-12-12-12-12-12-12-12-12-12-12-12-12-12-12-12-14-14-14-14-14-14-14-14-14-14-14-14-14-14-14-14-| ½
D|-12-12-12-12-12-12-12-12-12-12-12-12-12-12-12-12-14-14-14-14-14-14-14-14-14-14-14-14-14-14-14-14-| ½  X2
A|-10-10-10-10-10-10-10-10-10-10-10-10-10-10-10-10-12-12-12-12-12-12-12-12-12-12-12-12-12-12-12-12-| ½
E|-------------------------------------------------------------------------------------------------| ½

Puente
E|-----------------------------------------------------------------------------------------------------------|
B|-----------------------------------------------------------------------------------------------------------|
G|-77-77-7-7/11-11-11-11-11-11-11-11--77-77-7-7/-12-12-12-12-12-12-12-12| -11-11-11/12-12-12-12 -11-11-/-
D|-77-77-7-7/11-11-11-11-11-11-11-11--77-77-7-7/-12-12-12-12-12-12-12-12| -11-11-11/12-12-12-12 -11—11-/-
A|-55-55-5-5/-9--9--9--9--9--9--9--9--55-55-5-5/-10-10-10-10-10-10-10-10-9--9--9--9/10-10-10-10-9| —-9—9--/-
E|-----------------------------------------------------------------------------------------------------------|

E|----------------------------------------------| ½
B|----------------------------------------------| ½
G|-14-14-14-14-14---14-14--|
D|-12-12-12-12-12--| ½
A|-14-14-14-14-14---14-14--|
E|-12-12-12-12-12--| ½        X2
E|-12-12-12-12-12---12-12--| -10-10-10-10-10--½
B|----------------------------------------------| ½

Verso Dos guitarras PM
E|------------------------------------------------------------------------------------| ½
B|------------------------------------------------------------------------------------| ½
G|-77777777-11-11-11-11-11-11-11-11--12-12-12-12-12-12-12-12-14-14-14-14-14-14-14-14--| ½
D|-77777777-11-11-11-11-11-11-11-11--12-12-12-12-12-12-12-12-14-14-14-14-14-14-14-14--| ½          X2
A|-55555555--9--9--9--9--9--9--9--9--10-10-10-10-10-10-10-10-12-12-12-12-12-12-12-12--| ½
E|------------------------------------------------------------------------------------| ½

Coro
E|-----------------------------------------------------------------------------------------------------------| ½
B|-----------------------------------------------------------------------------------------------------------| ½
G|--7-7--7--9-9--9--11-11---11-11-11---7-7---7--6-6---6--4-4----4-4--4----7-7---7---9-9---9-11-11---11-11-11-| ½
D|--7-7--7--9-9--9--11-11---11-11-11---7-7---7--6-6---6--4-4----4-4--4----7-7---7---9-9---9-11-11---11-11-11-| ½
A|--5-5--5--7-7--7--9---9----9--9| —9----5-5---5--4-4---4--2-2----2-2--2----5-5---5---7-7---7-9---9---9--9—9---½
E|-----------------------------------------------------------------------------------------------------------| ½

Outro coro
E|---------------------| ½
B|---------------------| ½
G|---7-7---7-6-6---6-7-| ½
D|---7-7---7-6-6---6-7-| ½
A|---5-5---5-4-4---4-5-| ½
E|---------------------| ½


Verso X2

Coro sin outro



Interlude  guitarra 1
E|--------------------------| ½-------------------½                        -½---------------------½
B|--------------------------| ½-------------------½                     -½---------------------½
G|---x-x-7~--------x-x-11~--| ½-12-x-x-12-x-x-12--½                     -½-12~------11~--------½
D|---x-x-7~-xxx-9~-x-x-11~--| ½-12-x-x-12-x-x-12--½ la guitarra 2 hace lo       -½---------------------½
A|---x-x-5~-xxx-9~-x-x-9~---| ½-10-x-x-10-x-x-10--½  mismo pero termina en      -½---------------------½
E|----------xxx-7~----------| ½-------------------½                     -½---------------------½

E|--------------------------| ½-------------------½
B|----| ---------------------½-------------------½
G|---x-x-7~--------x-x-11~--| ½-14-x-x-14-x-x-14--½
D|---x-x-7~-xxx-9~-x-x-11~--| ½-14-x-x-14-x-x-14--½
A|---x-x-5~-xxx-9~-x-x-9~---| ½-12-x-x-12-x-x-12--½
E|----------xxx-7~----------| ½-------------------½


Solo guitarra 1

E|-------------------------------------------------------------------------------------------------------|
B|----------------------------7-8-7---------------------------------7-8-7--------------------------------|
G|------------------9-6-7~-7-9------9-7-6-7~---------------9-7~-7-9--------9-7-6| —77-7-66-6---------------
D|---7-7777777-9-7---------------------------7-7-9-7--7-------------------------------------99-99-9------|
A|-------------------------------------------------------------------------------------------------------|
E|-------------------------------------------------------------------------------------------------------|

E|-------------------------------------------------------------------------------------------------------|
B|-------------787----------------------77-77-7-10-7-----------------------------------------------------|
G|-------6-7-9------97676--77-7-99-9-------------------9-7-6-7~------------------------------------------|
D|--7-9--------------------------------------------------------------------------------------------------|
A|-------------------------------------------------------------------------------------------------------|
E|-------------------------------------------------------------------------------------------------------|

En el solo. guitarra2

Verso X2

Coro 2
E|------------------------------------------------------------------------------------------------------------| ½
B|------------------------------------------------------------------------------------------------------------| ½
G|---7-7---7--6-6---6--4-4---4-4--4----7-7---7--6-6---6--4-4----4-4--4----7-7---7---9-9---9-11-11---11-11-11--| ½
D|---7-7---7--6-6---6--4-4---4-4--4----7-7---7--6-6---6--4-4----4-4--4----7-7---7---9-9---9-11-11---11-11-11--| ½
A|---5-5---5--4-4---4--2-2---2-2--2----5-5---5--4-4---4--2-2----2-2--2----5-5---5---7-7---7-9---9-----9--9| —9--½
E|------------------------------------------------------------------------------------------------------------| ½

Outro coro
E|---------------------| ½
B|---------------------| ½
G|---7-7---7-6-6---6-7-| ½
D|---7-7---7-6-6---6-7-| ½
A|---5-5---5-4-4---4-5-| ½
E|---------------------| ½

Verso bajo X1
Verso 2 guitarras X1 escuchar el PM

Coro
Outro coro

Outro guitarra 1
E|-----xxxx----------|
B|-----xxxx----------|
G|---7-xxxx-7--7-7-7-|
D|---x-xxxx-x--x-x-x-| X4 solo X4 con bateria X4 segunda guitarra
A|---5-xxxx-5--5-5-5-|
E|-----xxxx----------|

Después
E|-----xxxx---------------xxxx---------------------xxxx------------------xxxx------------------------------------| ½
B|-----xxxx---------------xxxx---------------------xxxx------------------xxxx------------------------------------| ½
G|---7-xxxx-7--7-7-7-/-12-xxxx-12--12-12--12-/--11-xxxx-11--11-11| —11-/-9-xxxx-9-9-9-9-7~----9~---11~---12----14~-½
D|---x-xxxx-x--x-x-x-/-x--xxxx--x--x---x--x--/--x--xxxx| —x—--x-—x—-x-/--x-xxxx-x-x-x-x-x-----x~----x----x-----x---½
A|---5-xxxx-5--5-5-5-/-10-xxxx-10--10--10-10-/--9--xxxx| —9—--9-—9—-9-/--7-xxxx-7-7-7-7-5~----7~----9~---10~---12~-½
E|-----xxxx---------------xxxx---------------------xxxx------------------xxxx------------------------------------| ½


Guitarra dos outro

E|-----xxxx-----------xxxx------------xxxx----------xxxx------------xxxx----------------xxxx-------------|
B|-----xxxx-----------xxxx-----------xxxx-----------xxxx------------xxxx----------------xxxx-------------|
G|---9-xxxx-9--9-9--7-xxxx-7--7-7--9-xxxx-9--9-9--7-xxxx-7--7-7--14-xxxx-14--14-14---12-xxxx--12--12-12--|
D|---x-xxxx-x--x-x--x-xxxx-x--x-x--x-xxxx-x--x-x--x-xxxx-x--x-x---x-xxxx-x---x| —-x----x--xxxx--x---x--x---
A|---7-xxxx-7--7-7--5-xxxx-5--5-5--7-xxxx-7--7-7--5-xxxx-5--5-5--12-xxxx-12--12-12---10-xxxx--10--10-10--|
E|-----xxxx-----------xxxx-----------xxxx-----------xxxx------------xxxx----------------xxxx-------------|

E|----xxxx---------------xxxx------------------------------------| ½
B|----xxxx---------------xxxx------------------------------------| ½
G|-11-xxxx-11--11-11---9-xxxx-9-9-9--7~---9~---11~---12~----14~--| ½
-x—-xxxx-x---x---x---x-xxxx-x-x-x—x-----x-----x-----x------x---½
-9-—xxxx-9—--9—--9---7-xxxx-7-7-7--5~---7~----9~----10~---—12~-½
E|----xxxx---------------xxxx------------------------------------| ½

Bajo outro empieza con la guitarra 2

G|-------------------------------------------------------------------------------------------------|
D|-------------------------------------------------------------------------------------------------|
A –55555555-77777777-9999999-1010101010101010-1212121212121212-1010101010101010-99999999-77777777-
E|------------------------------------------------------------------------------------------------|

G|-----------------------------------------------| ½
D|-----------------------------------------------| ½
A—5~------7~-----9~------10~---------12~--------½
E|-----------------------------------------------| ½
Composição de Serena Radaelli
    • ½ Tom
    • A
    • Bb
    • B
    • C
    • Db
    • D
    • Eb
    • E
    • F
    • F#
    • G
    • Ab
  • Adicionar à lista

    0 comentários

    Ver todos os comentários

    Conseguiu tocar?

    0 Tocaram 0 Ainda não

    Grave um vídeo tocando Como estás e nos envie!

    00:00 / 00:00
    Outros vídeos desta música
    Repetir Qualidade Automático
    Outros vídeos desta música
    00:00 / 00:00
    Automático

    Cifra Club Pro

    Aproveite o Cifra Club com benefícios exclusivos e sem anúncios
    Cifra Club Pro
    Aproveite o Cifra Club com benefícios exclusivos e sem anúncios
    OK