Cifra Club

Aprenda

Déjalos Bailar

Delux

Cifra: Principal (violão e guitarra)
tom: G
Intro
Mo      woooooooo dejalos mover su cuerpo...

E|-xxxxxxxx-------------------------------------------------------------|
B|-xxxxxxxx-------------------------------------------------------------|
G|-xxxxxxxx---------------5-5-5-5-5-5----------------7-7-7-7-7-7--------|
D|-xxxxxxxx-2-2-2--5-5-5--5-5-5-5-5-5--2-2-2--5-5-5--7-7-7-7-7-7--------|
A|-xxxxxxxx-2-2-2--5-5-5| —-3-3-3-3-3-3--2-2-2--5-5-5--5-5-5-5-5-5--------|
E|-xxxxxxxx-0-0-0--3-3-3---------------0-0-0--3-3-3---------------------|

        woooooooo  dejalos bailar...

E|----------------------------------------------------------| |------|
B|----------------------------------------------------------| |------|
G|---------------5-5-5-5-5-5--9-9-9-9-9/-12/-7-7-7-7-7-7----| x2|--5~--|
D|-2-2-2--5-5-5--5-5-5-5-5-5--x-x-x-x-x/-xx/-x-x-x-x-x-x----| |--x~--|
A|-2-2-2--5-5-5--3-3-3-3-3-3--7-7-7-7-7/-10/-5-5-5-5-5-5----| |--3~--|
E|-0-0-0--3-3-3---------------------------------------------| |------|



Leo      woooooooo dejalos mover su cuerpo...

E|-xxxxxxxx-----------------------------------------------------------|
B|-xxxxxxxx-----------------------------------------------------------|
G|-xxxxxxxx--12------11------------------12~--------------------------|
D|-xxxxxxxx-------------------12~--------------------14-12-14-12------|
A|-xxxxxxxx-----------------------------------------------------------|
E|-xxxxxxxx-----------------------------------------------------------|

         woooooooo dejalos mover bailar...

E|----------------------------------------------------------| |------|
B|--------------------12~----12-12-12-12-12-12/-13/12-10~---| |--1~--|
G|---12----11-----------------------------------------------| |------|
D|----------------------------------------------------------| x2|------|
A|----------------------------------------------------------| |------|
E|----------------------------------------------------------| |------|

Verso
Aquí va el Papas (bajo) encuentra el rock en su momento...


Mo         Aquí ustedes le agarran los tiempos¡¡
E|----------------------------------------------------------------------|
B|----------------------------------------------------------------------|
G|-12-11--------12-11----14-12-11---------12-11-------11-12-14----------|
D|-------12-----------10------------------------12----------------------|
A|----------------------------------------------------------------------|
E|----------------------------------------------------------------------|
    *  *  *     *  *  *  *  *  *          *  *   *    *   *  *

Leo
E|----------------------------------------------------------------------|
B|----------------------------------------------------------------------|
G|-------------------------------------------------------------7-7-7----|
D|--5-5-5-5-5-5-5-5-5-5-5-5-5-5-5-5--7| —7-7-7-7-7-7-7-7-7-7-7-7-7-7-7----|
A|--3-3-3-3-3-3-3-3-3-3-3-3-3-3-3-3| —-5-5-5-5-5-5-5-5-5-5-5-5-5-5-5-5----|
E|-------------------------------------------------------------5-5-5----|
* * * * * * * * * * * * * * *  * * * * * * * * * * * * * *

E|----------------------------------------------------------------------|
B|----------------------------------------------------------------------|
G|----------------------------------------------------------------------|
D|--9-9-9-9-9-9-9-9-9-9-9-9-9-9-9-9--7-7-7-7-7-7-7-7--------------------|
A|--7-7-7-7-7-7-7-7-7-7-7-7-7-7-7-7--5-5-5-5-5-5-5-5--------------------|
E|----------------------------------------------------------------------|
   * * * * * * * * * * * * * * * *  * * * * * * * *


Coro
Mo      woooooooo dejalos mover su cuerpo...

E|-xxxxxxxx-------------------------------------------------------------|
B|-xxxxxxxx-------------------------------------------------------------|
G|-xxxxxxxx---------------5-5-5-5-5-5----------------7-7-7-7-7-7--------|
D|-xxxxxxxx-2-2-2--5-5-5--5-5-5-5-5-5--2-2-2--5-5-5--7-7-7-7-7-7--------|
A|-xxxxxxxx-2-2-2--5-5-5| —-3-3-3-3-3-3--2-2-2--5-5-5--5-5-5-5-5-5--------|
E|-xxxxxxxx-0-0-0--3-3-3---------------0-0-0--3-3-3---------------------|

        woooooooo  dejalos bailar...

E|----------------------------------------------------------| |------|
B|----------------------------------------------------------| |------|
G|---------------5-5-5-5-5-5--9-9-9-9-9/-12/-7-7-7-7-7-7----| x2|--5~--|
D|-2-2-2--5-5-5--5-5-5-5-5-5--x-x-x-x-x/-xx/-x-x-x-x-x-x----| |--x~--|
A|-2-2-2--5-5-5--3-3-3-3-3-3--7-7-7-7-7/-10/-5-5-5-5-5-5----| |--3~--|
E|-0-0-0--3-3-3---------------------------------------------| |------|


Leo      woooooooo dejalos mover su cuerpo...

E|-xxxxxxxx-----------------------------------------------------------|
B|-xxxxxxxx-----------------------------------------------------------|
G|-xxxxxxxx--12------11------------------12~--------------------------|
D|-xxxxxxxx-------------------12~--------------------14-12-14-12------|
A|-xxxxxxxx-----------------------------------------------------------|
E|-xxxxxxxx-----------------------------------------------------------|

      woooooooo dejalos bailar...

E|----------------------------------------------------------| |------|
B|--------------------12~----12-12-12-12-12-12/-13/12-10~---| |--1~--|
G|---12----11-----------------------------------------------| |------|
D|----------------------------------------------------------| x2|------|
A|----------------------------------------------------------| |------|
E|----------------------------------------------------------| |------|


Leo

E|---------------------------|
B|---------------------------|
G|---5/7~--------------------|
D|--------5-4h5p4--0-4/7-4~--|
A|---------------------------|
E|---------------------------|

Verso

Mo
E|----------------------------------------------------------------------|
B|----------------------------------------------------------------------|
G|-12-11--------12-11----14-12-11---------12-11-------11-12-14----------|
D|-------12-----------10------------------------12----------------------|
A|----------------------------------------------------------------------|
E|----------------------------------------------------------------------|
    *  *  *     *  *  *  *  *  *          *  *   *    *   *  *

Leo
E|----------------------------------------------------------------------|
B|----------------------------------------------------------------------|
G|-------------------------------------------------------------7-7-7----|
D|--5-5-5-5-5-5-5-5-5-5-5-5-5-5-5-5--7| —7-7-7-7-7-7-7-7-7-7-7-7-7-7-7----
A|--3-3-3-3-3-3-3-3-3-3-3-3-3-3-3-3| —-5-5-5-5-5-5-5-5-5-5-5-5-5-5-5-5----
E|-------------------------------------------------------------5-5-5----|
* * * * * * * * * * * * * * *  * * * * * * * * * * * * * *

E|----------------------------------------------------------------------|
B|----------------------------------------------------------------------|
G|----------------------------------------------------------------------|
D|--9-9-9-9-9-9-9-9-9-9-9-9-9-9-9-9--7-7-7-7-7-7-7-7--------------------|
A|--7-7-7-7-7-7-7-7-7-7-7-7-7-7-7-7--5-5-5-5-5-5-5-5--------------------|
E|----------------------------------------------------------------------|
   * * * * * * * * * * * * * * * *  * * * * * * * *

Coro
Mo      woooooooo dejalos mover su cuerpo...

E|-xxxxxxxx-------------------------------------------------------------|
B|-xxxxxxxx-------------------------------------------------------------|
G|-xxxxxxxx---------------5-5-5-5-5-5----------------7-7-7-7-7-7--------|
D|-xxxxxxxx-2-2-2--5-5-5--5-5-5-5-5-5--2-2-2--5-5-5--7-7-7-7-7-7--------|
A|-xxxxxxxx-2-2-2--5-5-5| —-3-3-3-3-3-3--2-2-2--5-5-5--5-5-5-5-5-5--------|
E|-xxxxxxxx-0-0-0--3-3-3---------------0-0-0--3-3-3---------------------|

        woooooooo  dejalos bailar...

E|----------------------------------------------------------| |------|
B|----------------------------------------------------------| |------|
G|---------------5-5-5-5-5-5--9-9-9-9-9/-12/-7-7-7-7-7-7----| x2|--5~--|
D|-2-2-2--5-5-5--5-5-5-5-5-5--x-x-x-x-x/-xx/-x-x-x-x-x-x----| |--x~--|
A|-2-2-2--5-5-5--3-3-3-3-3-3--7-7-7-7-7/-10/-5-5-5-5-5-5----| |--3~--|
E|-0-0-0--3-3-3---------------------------------------------| |------|


Leo      woooooooo dejalos mover su cuerpo...

E|-xxxxxxxx-----------------------------------------------------------|
B|-xxxxxxxx-----------------------------------------------------------|
G|-xxxxxxxx--12------11------------------12~--------------------------|
D|-xxxxxxxx-------------------12~--------------------14-12-14-12------|
A|-xxxxxxxx-----------------------------------------------------------|
E|-xxxxxxxx-----------------------------------------------------------|

Leo      woooooooo dejalos bailar...

E|-------------------------------------------------------| |----------|
B|--------------------12~----12-12-12-12-12-12/-13/12-10~| |-10-12/-15|
G|---12----11--------------------------------------------| |----------|
D|-------------------------------------------------------| x2|----------|
A|-------------------------------------------------------| |----------|
E|-------------------------------------------------------| |----------|

Intermedio
Leo

E|--------------------------------|
B|--------------------------------|
G|-16-16-12-14-17-16-12-14-14-14--|
D|--x--x--x--x--x--x--x--x--x--x| —-| x8
A|-14-14-10-12-15-14-10-12-12-12--|
E|--------------------------------|

Mo  este entra a la cuarta vez q toka Leo
E|----------------------------------------------------------------------|
B|----------------------------------------------------------------------|
G|-12-12--12-12-12-12-11--11-11-11------12-12--12-12--11-12-14-12--11---|
D|--x--x---x--x--x--x-x---x--x--x---x3---x--x---x--x--x--x--x--x--x-----|
A|-10-10--10-10-10-10-9---9--9--9-------10-10--10-10--9--10-12-10| —-9----
E|----------------------------------------------------------------------|




Leo

E|----------------------------------------------------------------------|
B|----------------------------------------------------------------------|
G|-19-19-19-19-19-19-12-14-16-12-----12-12-12-12-12-12-19-17-16-12------|
D|--x--x--x--x--x--x--x--x--x--x| —x2---x--x--x--x--x--x--x--x--x--x—x2---|
A|-17-17-17-17-17-17-10-12-14-10-----10-10-10-10-10-10-17-15-14-10------|
E|----------------------------------------------------------------------|

Mo
E|----------------------------------------------------------------------|
B|----------------------------------------------------------------------|
G|-----------------------777-----5-5-5-5-5-5--5--5--5-777---------------|
D|--5-5-5-5-5-5--5--5--5-777-x2--5-5-5-5-5-5--5--5--5-777-x2------------|
A|--5-5-5-5-5-5--5--5--5-555-----3-3-3-3-3-3--3--3--3-555---------------|
E|--3-3-3-3-3-3--3--3--3------------------------------------------------|

Ambas guitarras

E|-----------------xxxxxx-----------------------------------------------|
B|-----------------xxxxxx-----------------------------------------------|
G|---------------5-xxxxxx---------------7-------------------------------|
D|--2-2-2--5-5-5-5-xxxxxx-2-2-2--5-5-5--7-------------------------------|
A|--2-2-2--5-5-5| —3-xxxxxx-2-2-2--5-5-5--5-------------------------------|
E|--0-0-0--3-3-3---xxxxxx-0-0-0--3-3-3-----_-_-_-_-_-_-_-_-_-_-_-_------|

E|----------------------------------------------------------|
B|----------------------------------------------------------|
G|---------------5-5-5-5-5-5--9-9-9-9-9/-12/-7-7-7-7-7-7----|
D|-2-2-2--5-5-5--5-5-5-5-5-5--x-x-x-x-x/-xx/-x-x-x-x-x-x----|
A|-2-2-2--5-5-5--3-3-3-3-3-3--7-7-7-7-7/-10/-5-5-5-5-5-5----|
E|-0-0-0--3-3-3---------------------------------------------|

Mo      woooooooo dejalos mover su cuerpo...

E|--------------------------------------------------------------|
B|--------------------------------------------------------------|
G|----------------5-5-5-5-5-5----------------7-7-7-7-7-7--------|
D|--2-2-2--5-5-5--5-5-5-5-5-5--2-2-2--5-5-5--7-7-7-7-7-7--------|
A|--2-2-2--5-5-5| —-3-3-3-3-3-3--2-2-2--5-5-5--5-5-5-5-5-5--------|
E|--0-0-0--3-3-3---------------0-0-0--3-3-3---------------------|

Mo            woooooooo  dejalos bailar...

E|----------------------------------------------------------| |xxxxxxx|
B|----------------------------------------------------------| |xxxxxxx|
G|---------------5-5-5-5-5-5--9-9-9-9-9/-12/-7-7-7-7-7-7----| x2 |xxxxxxx|
D|-2-2-2--5-5-5--5-5-5-5-5-5--x-x-x-x-x/-xx/-x-x-x-x-x-x----| |xxxxxxx|
A|-2-2-2--5-5-5--3-3-3-3-3-3--7-7-7-7-7/-10/-5-5-5-5-5-5----| |xxxxxxx|
E|-0-0-0--3-3-3---------------------------------------------| |xxxxxxx|


Leo      woooooooo dejalos mover su cuerpo...

E|------------------------------------------------------------|
B|------------------------------------------------------------|
G|---12------11------------------12~--------------------------|
D|--------------------12~--------------------14-12-14-12------|
A|------------------------------------------------------------|
E|------------------------------------------------------------|

Leo      woooooooo dejalos mover bailar...

E|----------------------------------------------------------| |xxxxxxxx|
B|--------------------12~----12-12-12-12-12-12/-13/12-10~---| |xxxxxxxx|
G|---12----11-----------------------------------------------| |xxxxxxxx|
D|----------------------------------------------------------| x2|xxxxxxxx|
A|----------------------------------------------------------| |xxxxxxxx|
E|----------------------------------------------------------| |xxxxxxxx|
Composição de Delux
    • ½ Tom
    • A
    • Bb
    • B
    • C
    • Db
    • D
    • Eb
    • E
    • F
    • F#
    • G
    • Ab
  • Adicionar à lista

    0 comentários

    Ver todos os comentários

    Conseguiu tocar?

    0 Tocaram 0 Ainda não

    Grave um vídeo tocando Déjalos Bailar e nos envie!

    00:00 / 00:00
    Outros vídeos desta música
    Repetir Qualidade Automático
    Outros vídeos desta música
    00:00 / 00:00
    Automático

    Cifra Club Pro

    Aproveite o Cifra Club com benefícios exclusivos e sem anúncios
    Cifra Club Pro
    Aproveite o Cifra Club com benefícios exclusivos e sem anúncios
    OK