Cifra Club

Aprenda

Desafortunado

Delux

Cifra: Principal (violão e guitarra)
tom: Gm
          3x
E|----------------------| |----------------------||
B|----------------------| |----------------------||
G|----------------------| |----------------------||
D|-------8-8---x-| ------||----8--8---7----------||
A|-------8-8---x--------| |----8--8---7----------||
E|-------6-6---x--------| |----6--6---5----------||

Desafortunado perdiendo todo mi instinto
para no acabar enamorado...
E|------------------------------------------| |
B|------------------------------------------| |
G|----------------7-7-7-7-------------------| |
D|-------8-8-8-8--7-7-7-7--5-5-5-5--3-3-3-3-| |
A|-------8-8-8-8--5-5-5-5--5-5-5-5--3-3-3-3-| |
E|-------6-6-6-6-----------3-3-3-3--1-1-1-1-| |


Estoy cansado de sufrir
tanto dar sin recibir
en esta relacion
no habra satisfaccion que me haga ser (feliz)

(con palm mute)
E|------------------------------------------| |
B|------------------------------------------| |
G|----------------7-7-7-7-------------------| |
D|-------8-8-8-8--7-7-7-7--5-5-5-5--3-3-3-3-| |
A|-------8-8-8-8--5-5-5-5--5-5-5-5--3-3-3-3-| |
E|-------6-6-6-6-----------3-3-3-3--1-1-1-1-| |
        . . . . . . . . . . . . . . . . . .

                y yo....
E|---------------------| |
B|---------------------| |
G|---------------------| |
D|------8-8-8-8--------| |
A|------6-6-6-6--------| |
E|------6-6-6-6--------| |

               se que....
E|---------------------| |
B|---------------------| |
G|---------------------| |
D|------8-8-8-8--------| |
A|------6-6-6-6--------| |
E|------6-6-6-6--------| |

  pronto me arrastrare...
E|-----------------------| |
B|-----------------------| |
G|-----------------------| |
D|------5-5-5-5--3-3-3-3-| |
A|------5-5-5-3--3-3-3-3-| |
E|------3-3-3-3--1-1-1-1-| |

         por ti...
E|---------------------| |
B|---------------------| |
G|---------------------| |
D|------8-8-8-8--------| |
A|------6-6-6-6--------| |
E|------6-6-6-6--------| |

              y tu....
E|---------------------| |
B|---------------------| |
G|---------------------| |
D|------8-8-8-8--------| |
A|------6-6-6-6--------| |
E|------6-6-6-6--------| |

  nunca seras mia...
E|-----------------------| |
B|-----------------------| |
G|-----------------------| |
D|------5-5-5-5--3-3-3-3-| |
A|------5-5-5-3--3-3-3-3-| |
E|------3-3-3-3--1-1-1-1-| |


Ya me siento ahogado
un año mas he caido en este avismo
que es estar clavado...
E|------------------------------------------| |
B|------------------------------------------| |
G|----------------7-7-7-7-------------------| |
D|-------8-8-8-8--7-7-7-7--5-5-5-5--3-3-3-3-| |
A|-------8-8-8-8--5-5-5-5--5-5-5-5--3-3-3-3-| |
E|-------6-6-6-6-----------3-3-3-3--1-1-1-1-| |

Estoy cansado de sufrir
tanto dar sin recibir
en esta relacion
no habra satisfaccion que me haga ser (feliz)

(con palm mute)
E|------------------------------------------| |
B|------------------------------------------| |
G|----------------7-7-7-7-------------------| |
D|-------8-8-8-8--7-7-7-7--5-5-5-5--3-3-3-3-| |
A|-------8-8-8-8--5-5-5-5--5-5-5-5--3-3-3-3-| |
E|-------6-6-6-6-----------3-3-3-3--1-1-1-1-| |
        . . . . . . . . . . . . . . . . . .

                y yo....
E|---------------------| |
B|---------------------| |
G|---------------------| |
D|------8-8-8-8--------| |
A|------6-6-6-6--------| |
E|------6-6-6-6--------| |

               se que....
E|---------------------| |
B|---------------------| |
G|---------------------| |
D|------8-8-8-8--------| |
A|------6-6-6-6--------| |
E|------6-6-6-6--------| |

  pronto me arrastrare...
E|-----------------------| |
B|-----------------------| |
G|-----------------------| |
D|------5-5-5-5--3-3-3-3-| |
A|------5-5-5-3--3-3-3-3-| |
E|------3-3-3-3--1-1-1-1-| |

         por ti...
E|---------------------| |
B|---------------------| |
G|---------------------| |
D|------8-8-8-8--------| |
A|------6-6-6-6--------| |
E|------6-6-6-6--------| |

              y tu....
E|---------------------| |
B|---------------------| |
G|---------------------| |
D|------8-8-8-8--------| |
A|------6-6-6-6--------| |
E|------6-6-6-6--------| |

  nunca seras mia...
E|-----------------------| |
B|-----------------------| |
G|-----------------------| |
D|------5-5-5-5--3-3-3-3-| |
A|------5-5-5-3--3-3-3-3-| |
E|------3-3-3-3--1-1-1-1-| |
Composição de Serena Radaelli
    • ½ Tom
    • Am
    • Bbm
    • Bm
    • Cm
    • C#m
    • Dm
    • Ebm
    • Em
    • Fm
    • F#m
    • Gm
    • G#m
  • Adicionar à lista

    0 comentários

    Ver todos os comentários

    Conseguiu tocar?

    0 Tocaram 0 Ainda não

    Grave um vídeo tocando Desafortunado e nos envie!

    00:00 / 00:00
    Outros vídeos desta música
    Repetir Qualidade Automático
    Outros vídeos desta música
    00:00 / 00:00
    Automático

    Cifra Club Pro

    Aproveite o Cifra Club com benefícios exclusivos e sem anúncios
    Cifra Club Pro
    Aproveite o Cifra Club com benefícios exclusivos e sem anúncios
    OK