Cifra Club

Aprenda

Dime

Delux

Cifra: Principal (violão e guitarra)
tom: Bb
   Es el lugar
E|----------------------------------|
B|----------------------------------|
G|--8-8-8-8----3-3-3-3--------------|
D|--8-8-8-8----3-3-3-3---3-3-3-3-3--|
A|--6-6-6-6----1-1-1-1---3-3-3-3-3--|
E|-----------------------1-1-1-1-1--|

   Y es el momento,
E|----------------------------------|
B|----------------------------------|
G|--8-8-8-8----3-3-3-3--------------|
D|--8-8-8-8----3-3-3-3---3-3-3-3-3--|
A|--6-6-6-6----1-1-1-1---3-3-3-3-3--|
E|-----------------------1-1-1-1-1--|

  En el que todo tu encanto a muerto
E|----------------------------------|
B|----------------------------------|
G|--8-8-8-8----3-3-3-3--------------|
D|--8-8-8-8----3-3-3-3---3-3-3-3-3--|
A|--6-6-6-6----1-1-1-1---3-3-3-3-3--|
E|-----------------------1-1-1-1-1--|

  Se ah convertido en rencor.
E|----------------------------------|
B|----------------------------------|
G|--8-8-8-8----3-3-3-3--------------|
D|--8-8-8-8----3-3-3-3---3-3-3-3-3--|
A|--6-6-6-6----1-1-1-1---3-3-3-3-3--|
E|-----------------------1-1-1-1-1--|


   Eb           Bb          F
   Y si te vas, y si te vas miente
E|----------1---|
B|-3----4-3-----|
G|--------------|
D|--------------|
A|--------------|
E|--------------|

   Eb           Bb          F
   Si tu te vas, siente mi dolor
E|----------------|
B|-3----4-3-1-3---|
G|----------------|
D|----------------|
A|----------------|
E|----------------|

   Eb           Bb          F
   Y si te vas, y si te vas siente
E|----------1---|
B|-3----4-3-----|
G|--------------|
D|--------------|
A|--------------|
E|--------------|

  Eb           F
  Hoy muere tu suerte
E|-------|
B|-3-3-3-|
G|-------|
D|-------|
A|-------|
E|-------|

Dime que no fue tu intención causarme dolor
E|----------------------------------------|
B|----------------------------------------|
G|--8-8-8-8----3-3-3-3--------------------|
D|--8-8-8-8----3-3-3-3---5-5-5---3-3-3-3--|
A|--6-6-6-6----1-1-1-1---5-5-5---3-3-3-3--|
E|-----------------------3-3-3---1-1-1-1--|

Miente, y no me digas que no fui el mejor
E|--------------------------------------|
B|--------------------------------------|
G|--8-8-8-8----3-3-3-3------------------|
D|--8-8-8-8----3-3-3-3---3-3-3-3-3-3-3--|
A|--6-6-6-6----1-1-1-1---3-3-3-3-3-3-3--|
E|-----------------------1-1-1-1-1-1-1--|

Dime que no fue tu intención causarme dolor
E|----------------------------------------|
B|----------------------------------------|
G|--8-8-8-8----3-3-3-3--------------------|
D|--8-8-8-8----3-3-3-3---5-5-5---3-3-3-3--|
A|--6-6-6-6----1-1-1-1---5-5-5---3-3-3-3--|
E|-----------------------3-3-3---1-1-1-1--|

Miente, y no me digas que no fui el mejor
E|--------------------------------------|
B|--------------------------------------|
G|--8-8-8-8----3-3-3-3------------------|
D|--8-8-8-8----3-3-3-3---3-3-3-3-3-3-3--|
A|--6-6-6-6----1-1-1-1---3-3-3-3-3-3-3--|
E|-----------------------1-1-1-1-1-1-1--|

   Es mi lugar,
E|----------------------------------|
B|----------------------------------|
G|--8-8-8-8----3-3-3-3--------------|
D|--8-8-8-8----3-3-3-3---3-3-3-3-3--|
A|--6-6-6-6----1-1-1-1---3-3-3-3-3--|
E|-----------------------1-1-1-1-1--|

   Y es mi momento
E|----------------------------------|
B|----------------------------------|
G|--8-8-8-8----3-3-3-3--------------|
D|--8-8-8-8----3-3-3-3---3-3-3-3-3--|
A|--6-6-6-6----1-1-1-1---3-3-3-3-3--|
E|-----------------------1-1-1-1-1--|

  Donde  decido tu sufrimiento
E|----------------------------------|
B|----------------------------------|
G|--8-8-8-8----3-3-3-3--------------|
D|--8-8-8-8----3-3-3-3---3-3-3-3-3--|
A|--6-6-6-6----1-1-1-1---3-3-3-3-3--|
E|-----------------------1-1-1-1-1--|

   O lo convierto en amor
E|----------------------------------|
B|----------------------------------|
G|--8-8-8-8----3-3-3-3--------------|
D|--8-8-8-8----3-3-3-3---3-3-3-3-3--|
A|--6-6-6-6----1-1-1-1---3-3-3-3-3--|
E|-----------------------1-1-1-1-1--|

   Eb           Bb          F
   Y si te vas, y si te vas miente
E|----------1---|
B|-3----4-3-----|
G|--------------|
D|--------------|
A|--------------|
E|--------------|

   Eb           Bb          F
   Si tu te vas, siente mi dolor
E|----------------|
B|-3----4-3-1-3---|
G|----------------|
D|----------------|
A|----------------|
E|----------------|

   Eb           Bb          F
   Y si te vas, y si te vas siente
E|----------1---|
B|-3----4-3-----|
G|--------------|
D|--------------|
A|--------------|
E|--------------|

  Eb           F
  Hoy muere tu suerte
E|-------|
B|-3-3-3-|
G|-------|
D|-------|
A|-------|
E|-------|

  Dime que no fue tu intención causarme dolor
E|----------------------------------------|
B|----------------------------------------|
G|--8-8-8-8----3-3-3-3--------------------|
D|--8-8-8-8----3-3-3-3---5-5-5---3-3-3-3--|
A|--6-6-6-6----1-1-1-1---5-5-5---3-3-3-3--|
E|-----------------------3-3-3---1-1-1-1--|

  Miente, y no me digas que no fui el mejor
E|--------------------------------------|
B|--------------------------------------|
G|--8-8-8-8----3-3-3-3------------------|
D|--8-8-8-8----3-3-3-3---3-3-3-3-3-3-3--|
A|--6-6-6-6----1-1-1-1---3-3-3-3-3-3-3--|
E|-----------------------1-1-1-1-1-1-1--|

  Dime que no fue tu intención causarme dolor
E|----------------------------------------|
B|----------------------------------------|
G|--8-8-8-8----3-3-3-3--------------------|
D|--8-8-8-8----3-3-3-3---5-5-5---3-3-3-3--|
A|--6-6-6-6----1-1-1-1---5-5-5---3-3-3-3--|
E|-----------------------3-3-3---1-1-1-1--|

  Miente, y no me digas que no fui el mejor
E|--------------------------------------|
B|--------------------------------------|
G|--8-8-8-8----3-3-3-3------------------|
D|--8-8-8-8----3-3-3-3---3-3-3-3-3-3-3--|
A|--6-6-6-6----1-1-1-1---3-3-3-3-3-3-3--|
E|-----------------------1-1-1-1-1-1-1--|

   G  O
E|------------------------|----|
B|-1-3--1-3-1--6-6-6-6-6--|----|
G|-3-3--3-3-3--3-3-3-3-3--|-X3-|
D|------------------------|----|
A|------------------------|----|
E|------------------------|----|

E|------------------------------------------|
B|-1-3--1-3-1--6-6-6-6-6---3-1---1-3-1---1--|
G|-3-3--3-3-3--3-3-3-3-3-------3-------3----|
D|------------------------------------------|
A|------------------------------------------|
E|------------------------------------------|

E|------------------------|----|---------------|
B|-1-3--1-3-1--6-6-6-6-6--|----|---------------|
G|-3-3--3-3-3--3-3-3-3-3--|-X3-|---------------|
D|------------------------|----|-3-3-3-3-3-3-3-|
A|------------------------|----|-3-3-3-3-3-3-3-|
E|------------------------|----|-1-1-1-1-1-1-1-|


  ESTA PARTE VA CON TDM OLO

E|-----------------------|
B|-----------------------|
G|--8--3--------8--3-----|
D|--8--3--3-----8--3--3--|
A|--6--1--3-----6--1--3--|
E|--------1-----------1--|

  Dime que no fue tu intención causarme dolor
E|----------------------------------------|
B|----------------------------------------|
G|--8-8-8-8----3-3-3-3--------------------|
D|--8-8-8-8----3-3-3-3---5-5-5---3-3-3-3--|
A|--6-6-6-6----1-1-1-1---5-5-5---3-3-3-3--|
E|-----------------------3-3-3---1-1-1-1--|

  Miente, y no me digas que no fui el mejor
E|--------------------------------------|
B|--------------------------------------|
G|--8-8-8-8----3-3-3-3------------------|
D|--8-8-8-8----3-3-3-3---3-3-3-3-3-3-3--|
A|--6-6-6-6----1-1-1-1---3-3-3-3-3-3-3--|
E|-----------------------1-1-1-1-1-1-1--|

  Dime que no fue tu intención causarme dolor
E|----------------------------------------|
B|----------------------------------------|
G|--8-8-8-8----3-3-3-3--------------------|
D|--8-8-8-8----3-3-3-3---5-5-5---3-3-3-3--|
A|--6-6-6-6----1-1-1-1---5-5-5---3-3-3-3--|
E|-----------------------3-3-3---1-1-1-1--|

  Miente, y no me digas que no fui el mejor
E|--------------------------------------|
B|--------------------------------------|
G|--8-8-8-8----3-3-3-3------------------|
D|--8-8-8-8----3-3-3-3---3-3-3-3-3-3-3--|
A|--6-6-6-6----1-1-1-1---3-3-3-3-3-3-3--|
E|-----------------------1-1-1-1-1-1-1--|


   Eb           Bb          F
   Y si te vas, y si te vas miente
E|----------1---|
B|-3----4-3-----|
G|--------------|
D|--------------|
A|--------------|
E|--------------|

   Eb           Bb          F
   Si tu te vas, siente mi dolor
E|----------------|
B|-3----4-3-1-3---|
G|----------------|
D|----------------|
A|----------------|
E|----------------|

   Eb           Bb          F
   Y si te vas, y si te vas miente
E|----------1---|
B|-3----4-3-----|
G|--------------|
D|--------------|
A|--------------|
E|--------------|

   Eb           Bb          F
   Si tu te vas, siente mi dolor
E|----------------|
B|-3----4-3-1-3---|
G|----------------|
D|----------------|
A|----------------|
E|----------------|
Compositor não encontrado.
    • ½ Tom
    • A
    • Bb
    • B
    • C
    • Db
    • D
    • Eb
    • E
    • F
    • F#
    • G
    • Ab
  • Adicionar à lista

    0 comentários

    Ver todos os comentários

    Conseguiu tocar?

    0 Tocaram 0 Ainda não

    Grave um vídeo tocando Dime e nos envie!

    00:00 / 00:00
    Outros vídeos desta música
    Repetir Qualidade Automático
    Outros vídeos desta música
    00:00 / 00:00
    Automático

    Cifra Club Pro

    Aproveite o Cifra Club com benefícios exclusivos e sem anúncios
    Cifra Club Pro
    Aproveite o Cifra Club com benefícios exclusivos e sem anúncios
    OK