Cifra Club

Ocean Deep

Denis Warren

Cifra: Principal (violão e guitarra)
Selo Cifra Club: esta cifra foi revisada para atender aos critérios oficiais da nossa Equipe de Qualidade.
tom: E
E|-------------------|-----------------------------|-------------------|
B|-------------------|-----------------------------|--3----------------|
G|-------------------|--7----------------L~--------|--2----------------|
D|-------------------|-----------------------------|--0----------------|
A|-------------------|-----------------------------|-------------------|
E|-------------------|-----------------------------|-------------------|

-----------------------------------|--------------------|--------------------|
-----------------------------------|-------8------------|--L-----------------|
---------<>7-L----L----------------|--------------------|--------------------|
-----<>7-----L---------------------|--------------------|--------------------|
-----------------------------------|--------------------|--------------------|
-----------------------------------|--------------------|--------------------|

--------------------|--------------------|-----------------5--6s-8----|
--------------------|--------------------|--5b------L-3------------6--|
-------5------------|--L-----------------|--------------5-------------|
--------------------|--------------------|----------------------------|
--------------------|--------------------|----------------------------|
--------------------|--------------------|----------------------------|

-----------------------|--------------------------------|
--L~--------6----------|-------------8------------------|
----------5---5--------|-----------7---9--L~--5---5~----|
-----------------------|-----7--8---------------7-------|
-----------------------|--------------------------------|
-----------------------|--------------------------------|

------------13-15-12~---L---------------|--------------------------------------|
---------------------------13-----------|--------------------------------------|
-----14p-12-------------------14s-10----|-----12b---L---10-9----9-10--L--------|
----------------------------------------|--------------------12----------12----|
----------------------------------------|-----------------------------------12-|
----------------------------------------|--------------------------------------|
                                PM PM PM
---------------------------|-----------------5--L---------13p-10-|
---------------------------|-------------5-6-------6~--L---------|
---------------------------|----------5--------------------------|
--8~------7----------------|-------5-----------------------------|
------------8s-3----L~-----|----8--------------------------------|
---------------------------|-------------------------------------|

--15b---15--L--17br------------|-----------------------------|
---------------------18--------|----8---L--6-----------------|
-------------------------------|-------------7----9p-7-------|
-------------------------------|---------------7-------7~----|
-------------------------------|-----------------------------|
-------------------------------|-----------------------------|

----12-12-12-12--------------12p-10-------|
----------------13------------------10----|
-------------------14~---L----------------|
------------------------------------------|
------------------------------------------|
------------------------------------------|

-----15p-13-15b---13---L---------17----20b--|
--------------------------15p-13----15------|
--------------------------------------------|
--------------------------------------------|
--------------------------------------------|
--------------------------------------------|

--20--17------------------------------------------|
--------------------------------------------------|
----------19p-17-17~---L--------------------10-12-|
-----------------------------------------10-------|
--------------------------------8-10s-12----------|
---------------------------8-10-------------------|

--------------------------------------------------|
--------------------------10---10b----------------|
--14~-----L---10p-9----10-------------12p-10-12b--|
--------------------10----------------------------|
--------------------------------------------------|
--------------------------------------------------|

------------------------------------13---13-------13---15b----|
------------------------------13-15---------15-13-------------|
--12~----------------------14---------------------------------|
-----------10-12-12s-15-15------------------------------------|
--------------------------------------------------------------|
--------------------------------------------------------------|

---L~-----L---15pbr-13-15b---------------------|
-------------------------------13b--13~---L----|
-----------------------------------------------|
-----------------------------------------------|
-----------------------------------------------|
-----------------------------------------------|

-----------------------------------------------|-----------7--L--8--8h-10----|
------------15---------------13----------------|--------8-----------------8--|
-----15p-14------15---15p-14----14-12~---------|-----7-----------------------|
-----------------------------------------------|--5--------------------------|
-----------------------------------------------|-----------------------------|
-----------------------------------------------|-----------------------------|

-----------------------------------|-----------7-8-----------------|
--Lp--7------------------------7-8-|--10b----------10b--10---L-----|
--------7-------------------7------|-------------------------------|
----------9----L---------9---------|-------------------------------|
-------------------9--10-----------|-------------------------------|
-----------------------------------|-------------------------------|

-----------------------------------------|-----------7--L--8--8h-10----|
--12b---10-----10------------------------|--------8-----------------8--|
-----------12-----11---------------------|-----7-----------------------|
---------------------12--9h-10p-9--------|--5--------------------------|
----------------------------------10-9-5-|-----------------------------|
-----------------------------------------|-----------------------------|
                PM PM PM  PM
------------------------------------10-|--14b-----L~----14b---12-14b----|
--Lp--7--------------------------10----|--------------------------------|
--------7------------------11-12-------|--------------------------------|
----------9----------9--12-------------|--------------------------------|
---------------10-12-------------------|--------------------------------|
---------------------------------------|--------------------------------|
--14b~-----L---12-----------|-----------------------|
------------------15--------|---------10---L--------|
----------------------------|-----------------------|
----------------------------|-----------------------|
----------------------------|-----------------------|
----------------------------|-----------------------|

------------------------------|------------------------|-------------------|
---L---------L--10---Ls---11s-|--10-------------L--8---|--L----------------|
------------------------------|------------------------|-------------------|
------------------------------|------------------------|-------------------|
------------------------------|------------------------|-------------------|
------------------------------|------------------------|-------------------|-

----------------------------------|------------------------------|
--5h-6p-5-------------------------|------------------------------|
----------5-----------------------|------------------------------|
------------7--5--7---------------|--7--8--8h-10-7b--L--7--L-----|
---------------------5~--L--7--8--|------------------------------|
----------------------------------|------------------------------|

---------------------------------13--12p-10h-12-13-15~---L---12h-13-12-10-|
----------------10-11-13p-11p-10------------------------------------------|
--------9-10-12-----------------------------------------------------------|
--10-12-------------------------------------------------------------------|
--------------------------------------------------------------------------|
--------------------------------------------------------------------------|

-------------------------------------------------------|
--13-10h-11p-10----10----------------------------------|
----------------12----10-------------------------------|
-------------------------10-8-7h-8p-7------------------|
--------------------------------------8----------------|
----------------------------------------8s-5-5------3--|

--------------------------------|--------------------------------------|
--------------------------10p-8-|--10p---8-----------------10----------|
--------------------------------|-----------------------10----10b--10--|
-----------7p-5-7p---5----------|-------------8p-7-8-10----------------|
--------------------------------|--------------------------------------|
--5-----------------------------|--------------------------------------|

--------------------------------------|---------12----15--12---L~---------|
------------------------------10------|--13p-10----13---------------------|
----------------------10----------10--|-----------------------------------|
--10h-12--L-10--L---------10----------|-----------------------------------|
--------------------------------------|-----------------------------------|
--------------------------------------|-----------------------------------|
    PM PM    PM PM    PM         PM  PM    PM PM    PM
--------------------------|-----------------------------|
--8--------6--------8-----|---9----------9--------9-----|
--5--5--5--5--5--5--5--5--|--10--10--10--8--8--8--8--8--|
--------------------------|-----------------------------|
--------------------------|-----------------------------|
--------------------------|-----------------------------|
     PM PM    PM PM    PM         PM  PM    PM PM    PM
--------------------------|-----------------------------|
--8--------6--------8-----|---9----------9--------9-----|
--5--5--5--5--5--5--5--5--|--10--10--10--8--8--8--8--8--|
--------------------------|-----------------------------|
--------------------------|-----------------------------|
--------------------------|-----------------------------|
     PM PM    PM PM    PM         PM  PM    PM PM    PM
--------------------------|-----------------------------|
--8--------6--------8-----|---9----------9--------9-----|
--5--5--5--5--5--5--5--5--|--10--10--10--8--8--8--8--8--|
--------------------------|-----------------------------|
--------------------------|-----------------------------|
--------------------------|-----------------------------|
     PM PM    PM PM    PM         PM  PM    PM PM    PM
--------------------------|-----------------------------|
--8--------6--------8-----|---9----------9--------9-----|
--5--5--5--5--5--5--5--5--|--10--10--10--8--8--8--8--8--|
--------------------------|-----------------------------|
--------------------------|-----------------------------|
--------------------------|-----------------------------|

-------------------------------------------|
--11p-8-10b---L-8----11--------------------|
------------------10----10s-7--L--L--------|
--------------------------------------8p-5-|
-------------------------------------------|
-------------------------------------------|

----------------------------------------|
----------------------------------------|
----------------------------------------|
--<>7b---5------------------------------|
-----------8-6-<>8b-8-6---------------5-|
------------------------<>8~---L---/6---|

----------------6-8s-10------------------10-11-13--|
--------------6---------8-L--L-------11------------|
------------7--------------------12----------------|
-------7h-8----------------------------------------|
--8p-5---------------------------------------------|
---------------------------------------------------|

--10---L-----------------------------------------------8h-10h-|
---------11---------------------------------------------------|
------------12-10-7h-8p-7-L-----------------------------------|
----------------------------8---------------------------------|
------------------------------10-8-5h-6p-5-L------------------|
---------------------------------------------6s-3-3-----------|

--------------------------------------------------------------------------------
------------15p-10p-8-------------------15p-10p-8h-10h-15-----------------------
--------------------------------------------------------------------------------
----------------------15p-10p-8h-10h-15-----------------------------------------
--------------------------------------------------------------------------------

--------------------------------------------------------------------------------
--8-----------------------------------------------------------------------------
----15p-11h-15p-11p-8h-14p-10h-14p-10p-8----------------------------------------
-----------------------------------------15p-10h-15p-10p-8----------------------
-----------------------------------------------------------15p-10p-8------------
---------------------------------------------------------------------15p-10p-8h-

--15p-13p-11--------------------------------------------------15p-13p-11h-13h-17
--------------------------------------------------------------------------------
-------------15p-12p-10--------------------15p-12p-10h-12h-15-------------------
--------------------------------------------------------------------------------
------------------------15p-12p-10h-12h-15--------------------------------------
--------------------------------------------------------------------------------

-----------------------------------------------20p-17p-15h-17s--L-22-22b---22---
-------------------------------------------------------------------------------2
--17p-15--------------------20p-17p-15h-17h-20----------------------------------
--------------------------------------------------------------------------------
---------20p-17p-15h-17h-20-----------------------------------------------------
--------------------------------------------------------------------------------
                                                 PM  PMPM PM
-----------7--L--8--8h-10----|-----------------------------------|
--------8-----------------8--|--Lp--7------------------------7-8-|
-----7-----------------------|--------7-------------------7------|
--5--------------------------|----------9----L---------9---------|
-----------------------------|-------------------9--10-----------|
-----------------------------|-----------------------------------|

-----------7-8-----------------|-----------------------------------------|
--10b----------10b--10---L-----|--12b---10-----10------------------------|
-------------------------------|-----------12-----11---------------------|
-------------------------------|---------------------12--9h-10p-9--------|
-------------------------------|----------------------------------10-9-5-|
-------------------------------|-----------------------------------------|
                                             PM PMPM  PM
-----------7--L--8--8h-10----|------------------------------------10-|
--------8-----------------8--|--Lp--7--------------------------10----|
-----7-----------------------|--------7------------------11-12-------|
--5--------------------------|----------9----------9--12-------------|
-----------------------------|---------------10-12-------------------|
-----------------------------|---------------------------------------|

--14b-----L~----14b---12-14b----|--14b~-----L---12-----------|
--------------------------------|------------------15--------|
--------------------------------|----------------------------|
--------------------------------|----------------------------|
--------------------------------|----------------------------|
--------------------------------|----------------------------|

-----------------------------------|------------------------------------|
--8----8---L--7--L--8--8h-10-------|------------------------------------|
-----------------------------9s-7--|--Ls--4--2p-0-----------------------|
-----------------------------------|--------------2p-0-------------5h-7-|
-----------------------------------|-------------------5p---2-5s-7------|
-----------------------------------|------------------------------------|

----------------------------|
----------------------------|
--4~-----------4------------|
-------5----------5---------|
---------5--2--------7--5-5-|
----------------------------|
                                                           T            T
------------------------------7-----------------7h-8h-10h-12p-10p-8p-7----|
-------------------------8-10---8-------------8---------------------------|
--------------5-7------9----------9-7-------9--------------------------14-|
------------5-----5-10----------------9h-10-------------------------------|
----------7---------------------------------------------------------------|
----5-7-8-----------------------------------------------------------------|

-----------------------------17----------------------------------|
--15-------------------------------------------------------------|
-----14p-12p-9p-7h-9h-12h-16----16p-12h-14~---L--14--14h-16-12~--|
-----------------------------------------------------------------|
-----------------------------------------------------------------|
-----------------------------------------------------------------|

--------------------------------------10h-12-|
-----------------------------------12--------|
---L----------------------------11-----------|
------12-----------------12h-14--------------|
----------12h-14-10---L----------------------|
---------------------------------------------|

--14h-15--------------12p-0-10------------------|
------------------------------------------------|
---------12----12h-14----------0h-11h-12--------|
------------------------------------------------|
------------14---------------------------12-----|
------------------------------------------------|

------------------0h-3h-5~------------------0h-8h-10~----------------------0h-12
----------0h-3h-5-------------------0h-7h-8----------------------0h-12h-15------
--0h-2h-4-------------------0h-5h-7--------------------0h-11h-12----------------
--------------------------------------------------------------------------------
--------------------------------------------------------------------------------
--------------------------------------------------------------------------------

--15~----------------|-----------------------------|-------------------|
---------------------|-----------------------------|--3----------------|
---------------------|--7----------------L~--------|--2----------------|
---------------------|-----------------------------|--0----------------|
---------------------|-----------------------------|-------------------|
---------------------|-----------------------------|-------------------|

-----------------------------------|-------------------||
-----------------------------------|-------------------||
---------<>7-L----L----------------|-------------------||
-----<>7-----L---------------------|-------------------||
-----------------------------------|-------------------||
-----------------------------------|-------------------||


Outros vídeos desta música
69 exibições
    • ½ Tom
    • A
    • Bb
    • B
    • C
    • Db
    • D
    • Eb
    • E
    • F
    • F#
    • G
    • Ab
  • Adicionar à lista

Afinação da cifra

Afinador online

    0 comentários

    Ver todos os comentários

    Entre para o Cifra Club PRO

    Tenha acesso a benefícios exclusivos no App e no Site

    • Chega de anúncios

    • Mais recursos no app do Afinador

    • Atendimento Prioritário

    • Aumente seu limite de lista

    • Ajude a produzir mais conteúdo

    Cifra Club Pro

    Aproveite o Cifra Club com benefícios exclusivos e sem anúncios
    Cifra Club Pro
    Aproveite o Cifra Club com benefícios exclusivos e sem anúncios
    OK