Cifra Club

When The Past Comes Back

Denis Warren

Cifra: Principal (violão e guitarra)
Selo Cifra Club: esta cifra foi revisada para atender aos critérios oficiais da nossa Equipe de Qualidade.
tom: F#
                              Eb7M
E|---------------------|--10pbr----10---------------------|
B|------------------8--|---------------11--11--8~--L------|
G|---------------------|------------------------------8---|
D|---------------------|----------------------------------|
A|---------------------|----------------------------------|
E|---------------------|----------------------------------|
                                 Cm7
------------------------------|---------------------------|
--8pbr----8--6--6--------6h-8-|--6------------------------|
--------------------8-L-------|------8-L--7s-8s-7---------|
------------------------------|------------------------5--|
------------------------------|---------------------------|
------------------------------|---------------------------|
    Abm6          Bbm7               Eb7M
-------------4--3---------------|-------------------------------|
----------4----------6~--L--4h--|--6s---8~--L-------9p-8-9--11--|
-------4------------------------|-------------------------------|
--6-----------------------------|-------------------------------|
--------------------------------|-------------------------------|
--------------------------------|-------------------------------|
     C                                 Cm7
--11h-13--L---L--15---L----13-----|--11h-13s--L---L--11---L-----------|
----------------------------------|-----------------------------------|
----------------------------------|-------------------------------15--|
----------------------------------|-----------------------------------|
----------------------------------|-----------------------------------|
----------------------------------|-----------------------------------|
     Abm6         Bbm7             Eb7M
--16b----16----15br------16--|--16h--18--L---L---------------|
-----------------------------|---------------------------8---|
-----------------------------|-------------------------------|
-----------------------------|-------------------------------|
-----------------------------|-------------------------------|
-----------------------------|-------------------------------|
    Fm7                             Gm7
-------------------------------|-----------------------------|
--8------------------------8---|--8--------------------------|
------8------------------------|------8----------------------|
---------8---------------------|---------8-------------------|
------------10---L--8--10------|------------10---L--8--10----|
-------------------------------|-----------------------------|
    B7M                                 Db/Ab          A7(b13)
-----------------------------------|-----------------------------------|
-----------------------------------|-----------------------------------|
---------8--10--10h-11--L--10----8-|--8h----10s--L---L------8-L--------|
--8h--9----------------------------|-----------------------------------|
-----------------------------------|-----------------------------------|
-----------------------------------|-----------------------------------|
    Eb7M                           C
------------------------------|--------------------------|
------------------------------|--8-----------6-----------|
---------------------5h-7s-8--|--------------------------|
-------------------5----------|-----8--8--8-----6--6-----|
-----------------6------------|--------------------------|
-----------6--8---------------|--------------------------|
    Cm7                                Abm6              Bbm7
--------------------------------4-|---------------------------|
--4-----------------------3-4-6---|--6b~---------------8----9-|
----------------------4-5---------|---------------------------|
------5--5p---4-5--6--------------|---------------------------|
----------------------------------|---------------------------|
----------------------------------|---------------------------|
    Eb7M
-------------------------------10-11-|
--9h---11--L--9p-8-------------------|
-------------------8-----------------|
---------------------8-L-------------|
-------------------------------------|
-------------------------------------|
     C
--11h-13~--L--11p-10-----------------15-16-|
---------------------11--------------------|
------------------------10~--L-------------|
-------------------------------------------|
-------------------------------------------|
-------------------------------------------|
     Cm7                                    Abm6            Bbm7
--16h-18--L---L--------18-------15----|-------------------------------|
--------------------16----------------|--16--------------14----16~----|
-----------------17----------------17-|-------------------------------|
--------------------------------------|-------17---L------------------|
--------------------------------------|-------------------------------|
--------------------------------------|-------------------------------|
     Eb7M                        Fm7
--------15------------------|-------------------------------|
-------------------------8--|--8------------------------8---|
--15------------------------|------8------------------------|
--------------17s----15-----|---------8---------------------|
----------------------------|------------10---L--8--10------|
----------------------------|-------------------------------|
    Gm7                           B7M
-----------------------------|-----------------------------------|
--8--------------------------|-----------------------------------|
------8----------------------|---------8--10--10h-11--L--10----8-|
---------8-------------------|--8h--9----------------------------|
------------10---L--8--10----|-----------------------------------|
-----------------------------|-----------------------------------|
    Db/Ab                A7(b13)     Eb7M
--------------------------------|--------------------|
--------------------------------|--------------------|
--8h----10s--L---L---8-L--------|--L-----------------|
--------------------------------|--------------------|
--------------------------------|--------------------|
--------------------------------|--------------------|
    Fm7                     Db7M        Cm7
--------------------------|-----------------------------|
--8br------8br------------|-----------------------------|
------------------8----5--|--8b------6b--5--------------|
--------------------------|------------------6-L--5h-6s-|
--------------------------|-----------------------------|
--------------------------|-----------------------------|
  Bbm7     Fm7                Ab7M
                                                  PM PM
------------------------------|-----------------------------|
------------------------------|-----------------------------|
------------6h----8--L--5s----|--3----------------------5-8-|
--8---------------------------|----------6-5-3----6--8------|
------------------------------|-----------------------------|
------------------------------|-----------------------------|
    Fm7                     Db7M        Cm7
--------------------------|-----------------------------11p-8-|
--8br------8br------------|----------8-9-9h--11--L---L--------|
------------------8----5--|--8b-------------------------------|
--------------------------|-----------------------------------|
--------------------------|-----------------------------------|
--------------------------|-----------------------------------|
     Bbm7               Fm7                 Ab7M
--11------------------18b---18--16--16b--|--16b~-----------------|
----------11b--11--9---------------------|-----------------------|
-----------------------------------------|-----------------------|
-----------------------------------------|-----------------------|
-----------------------------------------|-----------------------|
-----------------------------------------|-----------------------|
    G#m                         G#m(#5)
---------------------------|-------------------------------------------|
---------------------------|-------------------------------------------|
--4~------3h--4s--6--L-----|--6h------8--L-----------------------------|
---------------------------|----------------6--6--L--4s-6s-4s-6s-4-L---|
---------------------------|-------------------------------------------|
---------------------------|-------------------------------------------|
     F#                                    D#m/A#
-------------------------------------|---------------------------------|
-------------------------------------|---------------------------------|
--1s-3--L--L--4p-3-4s-6s-L-3-L--4p-3-|---------------------------------|
-------------------------------------|--4------------------------4--2--|
-------------------------------------|---------6-L--6br--L-------------|
-------------------------------------|---------------------------------|
    G#m                     G#m(#5)
-----------------------|----------------------------------|
-----------------------|----------------------------12----|
------------------6p-4-|--4h------6--L--L--------------11-|
--1--------------------|----------------------------------|
-----------------------|----------------------------------|
-----------------------|----------------------------------|
     F#                                     D#m/A#
--11h--12p--11------------------------|--14~------------------|
----------------12---L-------------12-|--------------------8--|
------------------------11---L--11----|-----------------------|
--------------------------------------|-----------------------|
--------------------------------------|-----------------------|
--------------------------------------|-----------------------|
     Eb7M                              
--10pbr----10---------------------|------------------------------|
---------------11--11--8~--L------|--8pbr----8--6--6--------6h-8-|
------------------------------8---|--------------------8-L-------|
----------------------------------|------------------------------|
----------------------------------|------------------------------|
----------------------------------|------------------------------|
    Cm7                         Abm6          Bbm7
---------------------------|-------------4--3---------------|
--6------------------------|----------4----------6~--L--4h--|
------8-L--7s-8s-7---------|-------4------------------------|
------------------------5--|--6-----------------------------|
---------------------------|--------------------------------|
---------------------------|--------------------------------|
    Eb7M                             Do
-------------------------------|--11h-13--L---L--15---L----13-----|
--6s---8~--L-------9p-8-9--11--|----------------------------------|
-------------------------------|----------------------------------|
-------------------------------|----------------------------------|
-------------------------------|----------------------------------|
-------------------------------|----------------------------------|
     Cm7                                 Abm6         Bbm7
--11h-13s--L---L--11---L-----------|--16b----16----15br------16--|
-----------------------------------|-----------------------------|
-------------------------------15--|-----------------------------|
-----------------------------------|-----------------------------|
-----------------------------------|-----------------------------|
-----------------------------------|-----------------------------|

--16h--18--L---L---------------|-------------------------------|
---------------------------8---|--8------------------------8---|
-------------------------------|------8------------------------|
-------------------------------|---------8---------------------|
-------------------------------|------------10---L--8--10------|
-------------------------------|-------------------------------|
    Gm7                           B7M
-----------------------------|-----------------------------------|
--8--------------------------|-----------------------------------|
------8----------------------|---------8--10--10h-11--L--10----8-|
---------8-------------------|--8h--9----------------------------|
------------10---L--8--10----|-----------------------------------|
-----------------------------|-----------------------------------|
    Db/Ab                A7(b13)     Eb7M
--------------------------------|---------------------|
--------------------------------|---------8--L--------|
--8h----10s--L---L---8-L--------|---------------------|
--------------------------------|---------------------|
--------------------------------|---------------------|
--------------------------------|---------------------|
    c                         Cm7                     Abm6       Bbm7
------------10-----L--11--|------------------11--|---L------9-------------|
---------8----------------|--8------------L------|-------------11------9--|
--------------------------|----------------------|------------------------|
--------------------------|----------------------|------------------------|
--------------------------|----------------------|------------------------|
--------------------------|----------------------|------------------------|
     Eb7M                C                    Cm7
--------------------|----------------------|-----------------------|
--11----------------|--8------------L------|--8--------L-----16----|
--------------------|------------------10--|-----------------------|
--------------------|----------------------|-----------------------|
--------------------|----------------------|-----------------------|
--------------------|----------------------|-----------------------|
   Abm6        Bbm7           Eb7M

--15----------18----------|--15---8------------------|
--------16----------16----|-----------16-----------8--|
--------------------------|---------------------------|
--------------------------|---------------------------|
--------------------------|---------------------------|
--------------------------|---------------------------|
    Fm7                             Gm7
-------------------------------|-----------------------------|
--8------------------------8---|--8--------------------------|
------8------------------------|------8----------------------|
---------8---------------------|---------8-------------------|
------------10---L--8--10------|------------10---L--8--10----|
-------------------------------|-----------------------------|
  B7M                                 Db/Ab                A7(b13)
  E   E  E   E   T   S. E   E  S S    T      S.  E   E.  S H
-----------------------------------|--------------------------------|
-----------------------------------|--------------------------------|
---------8--10--10h-11--L--10----8-|--8h----10s--L---L---8-L--------|
--8h--9----------------------------|--------------------------------|
-----------------------------------|--------------------------------|
-----------------------------------|--------------------------------|
    Eb7M                     Fm7            Eo
------------------------|--------------------------|
------------------------|--8br------8br------------|
--L---------------------|------------------8----5--|
------------------------|--------------------------|
------------------------|--------------------------|
------------13s--1------|--------------------------|
    Db7M        Cm7               Bbm7     Fm7
-----------------------------|------------------------------|
-----------------------------|------------------------------|
--8b------6b--5--------------|------------6h----8--L--5s----|
------------------6-L--5h-6s-|--8---------------------------|
-----------------------------|------------------------------|
-----------------------------|------------------------------|
  Ab7M                       Fm7            
     Q.      S S Q    S  S  S S    Q.       Q      Q    E
-----------------------------|--------------------------|
-----------------------------|--8br------8br------------|
--3----------------------5-8-|------------------8----5--|
----------6-5-3----6--8------|--------------------------|
-----------------------------|--------------------------|
-----------------------------|--------------------------|
    Db7M        Cm7                      Bbm7               Fm7
-----------------------------11p-8-|--11------------------18b---18--16--16b--|
----------8-9-9h--11--L---L--------|----------11b--11--9---------------------|
--8b-------------------------------|-----------------------------------------|
-----------------------------------|-----------------------------------------|
-----------------------------------|-----------------------------------------|
-----------------------------------|-----------------------------------------|
      Ab7M                    Fm7             
--16b~-----------------|----------------------------------|
-----------------------|----------------------13--14--16--|
-----------------------|-----15b~---L---------------------|
-----------------------|----------------------------------|
-----------------------|----------------------------------|
-----------------------|----------------------------------|
     Db7M            Cm7
--------------------------------------|
--13h--14p-13-------------------------|
--------------15~--L---------3pbr---1-|
--------------------------------------|
--------------------------------------|
--------------------------------------|
    Bbm7                   Fm7
-------------------------------------------|
-------------------------------------------|
--3b----3br---1-----3br-L-----1----------|
----------------3-----------------3-L--1-3-|
-------------------------------------------|
-------------------------------------------|
    Ab7M
-------------------------------------|
-------------------------------------|
--1-----------1---1--L--3---3p-1-3~--|
----------3--------------------------|
-------------------------------------|
-------------------------------------|
        Fm7            
------------------------------------------|
------------------------------------------|
-------------13--15--15--12h-13-12--------|
-----13---15-----------------------13-13--|
------------------------------------------|
------------------------------------------|
      Db7M             Cm7
----------------------------------------13-16-|
-------------------------------------13-------|
----------------------------------13----------|
--13s--15------------------13h-15-------------|
-----------15--15---L-------------------------|
----------------------------------------------|
     Bbm7         Fm7                Ab7M
--16b----16~----15b---15--13--15--|--------------------------------|
----------------------------------|--18s-----16----L---------------|
----------------------------------|---------------------17~--------|
----------------------------------|--------------------------------|
----------------------------------|--------------------------------|
----------------------------------|--------------------------------|
     Fm7        
--13----------------------------|
--16b~--------16b----16---13-16-|
--------------------------------|
--------------------------------|
--------------------------------|
--------------------------------|
      Db7M                    Cm7
--13---15h-16-15-------------------------------------|
------------------16---------------------------------|
----------------------15--13--15-15s-17--------------|
------------------------------------------13s-15-13--|
-----------------------------------------------------|
-----------------------------------------------------|
     Bbm7       Fm7
--------------------------------------|
--------------------------------------|
---------------3p----1-3-3p-L-1-L---|
---L--------------------------------3-|
--------------------------------------|
--------------------------------------|
    Ab7M
------------------------------------------|
------------------------------------------|
------------------------------------------|
--Lp------1-------------------------------|
------------3p--L--1h-3---L--1------------|
--------------------------------4---L-----|
    Fm7                  
-----------------------------------------|
-----------------------------------------|
-----------------------------------------|
--8p---6-8s-10-10p--8-6------------------|
------------------------8----8p-6-6~-----|
-----------------------------------------|
    Db7M                  Cm7
------------------------------------------|
------------------------------------------|
--8p---5-8s-10-10p--8-6-5h--6p-5----------|
---------------------------------8-8~-----|
------------------------------------------|
------------------------------------------|
     Bbm                       Fm7
----------------------------------------------------|
--14p---13-14-16------------------------------------|
-----------------13p-12-13-15-12p---10s-8-----------|
------------------------------------------10-8s---6-|
----------------------------------------------------|
----------------------------------------------------|
    Ab7M
------------------------------------------------|
------------------------------------------------|
-----------------------------8-10-10-10b---8--|
--------------6b-L---6-8s-10--------------------|
--8-------6-8------8----------------------------|
------------------------------------------------|
     Fm7                            Db7M      Cm7
---------------------------------|------------------------------------|
---------------------------------|------------------------------------|
---------------------------6s-8--|------------------------------------|
--10~------8h-10---10------------|--10~--------6p--5-6---6s-8-L--6p-5-|
---------------------------------|------------------------------------|
---------------------------------|------------------------------------|
    Bbm7         Fm7           Ab7M
-----------------------------|----------------------------------|
-----------------------------|----------------------------------|
-----------------------------|----------------------------------|
-----------------------------|----------------------------------|
--6------6s-8---6-----L--4-3-|--4p------3-----------------------|
-----------------------------|------------6s-4~-L----L----------|
      Fm7                          Db7M                 Cm7
--13-----------15------16------|--15---16--18----------21b~----21--20--20--|
--16b~---------18b-----19b-----|---------------16~-------------------------|
-------------------------------|-------------------------------------------|
-------------------------------|-------------------------------------------|
-------------------------------|-------------------------------------------|
-------------------------------|-------------------------------------------|
     Bbm7          Fm7          Ab7M
--20b----------------------|----------------------||
---------21----------------|----------------------||
---------------16--------|---L----------------||
---------------------------|----------------------||
---------------------------|----------------------||
---------------------------|----------------------||
Outros vídeos desta música
61 exibições
    • ½ Tom
    • A
    • Bb
    • B
    • C
    • Db
    • D
    • Eb
    • E
    • F
    • F#
    • G
    • Ab
  • Adicionar à lista

Afinação da cifra

Afinador online

    0 comentários

    Ver todos os comentários

    Entre para o Cifra Club PRO

    Tenha acesso a benefícios exclusivos no App e no Site

    • Chega de anúncios

    • Mais recursos no app do Afinador

    • Atendimento Prioritário

    • Aumente seu limite de lista

    • Ajude a produzir mais conteúdo

    Cifra Club Pro

    Aproveite o Cifra Club com benefícios exclusivos e sem anúncios
    Cifra Club Pro
    Aproveite o Cifra Club com benefícios exclusivos e sem anúncios
    OK