Cifra Club

Aprenda

Master and Servant

Depeche Mode

Tab de baixo: Principal
Já pensou em usar uma coleção de roupas do Cifra Club? Responda as perguntas abaixo e nos ajude nessa missão! →
Afinação Padrão (EADG)

Intro (0:16)
D|----------------|1-1-------------| }
A|1-1---------1---|----4-1-4-4-3---| } (x4)
E|----4-1-4-4---1-|--------------4-| }

Verso 1 (0:31)
D|----------------|1-1-------------|
A|1-1---------1---|----4-1-4-4-3---|
E|----4-1-4-4---1-|--------------4-|

D|----------------|----------------|
A|1-1---------1---|4-4-4-4---------|
E|----4-1-4-4---1-|--------1-1-4-1-|

D|----------------|1-1---1-1-1-1-1-|
A|1-1---------1---|----4-----------|
E|----4-1-4-4---1-|----------------|

D|----------------|1-1-------------| }
A|1-1---------1---|----4-1-4-4-3---| } (x2)
E|----4-1-4-4---1-|--------------4-| }

Pré refrão 2 (0:50)
[tocar riff da intro x2]

Verso 2 (0:57)
[mesmo que o verso 1]

Post-verse 2 (1:16)
D|----------------|----------------|
A|1-1---------1---|1-1-----1-------|
E|----4-1-4-4---1-|----4-1---------|

Ponte 1 (1:20)

D|1-1---------1---|1-1---------1---| }
A|----4-1-4-4---1-|----4-1-4-4---1-| } (x3)
E|----------------|----------------| }

D|3-3-1---1-1-3-1-|----------------|
A|------3---------|----------------|
E|----------------|----------------|

Pre-verso 3 (1:35)
[tocar riff de intro x2]

Verso 3 (1:42)
[o mesmo que o verso 2]

Pós refrão 3 (2:01)
[mesmo que pós refrão 2]

ponte 2 (2:05)
D|----------------|3-3-1---1-1-0---| }
A|3-3-3---1-1-3-1-|------3-------1-| } (x5)
E|------3---------|----------------| }

D|----------------|--------1-------|
A|3-3-3---1-1-3-1-|3--3--3---3-----|
E|------3---------|----------------|

parada(2:40)
D|--------1-------|
A|3--3--3---3-----|
E|----------------|

Ponte 3 (2:50)
D|3-3-1---1-1-3-1-|3-3-1---1-1-3-1-| }
A|------3---------|------3---------| } (x3)
E|----------------|----------------| }

D|5-5-3---3-3-5-3-|----------------|
A|------5---------|----------------|
E|----------------|----------------|

Final(3:05)
D|----------------|3-3-1---1-1-0---| }
A|3-3-1---1-1-3-1-|------3-------1-| } (x7)
E|------3---------|----------------| }

D|--------1-------|
A|3--3--3---3-----|
E|----------------|
Composição de Martin Gore
Colaboração e revisão:
  • Thales Salgado
1.257 exibições

0 comentários

Ver todos os comentários

Conseguiu tocar?

0 Tocaram 0 Ainda não

Grave um vídeo tocando Master and Servant e nos envie!

00:00 / 00:00
Outros vídeos desta música
Repetir Qualidade Automático
Outros vídeos desta música
00:00 / 00:00
Automático

Cifra Club Pro

Aproveite o Cifra Club com benefícios exclusivos e sem anúncios
Cifra Club Pro
Aproveite o Cifra Club com benefícios exclusivos e sem anúncios
OK