Cifra Club

Never Let Me Down

Depeche Mode

Cifra: Principal (violão e guitarra)
Selo Cifra Club: esta cifra foi revisada para atender aos critérios oficiais da nossa Equipe de Qualidade.
tom: Dm
[Intro] G  Dm  C  F  Eb
        Dm  C  F  Eb
        Dm  C  G

[Tab - Riff - Violão 1]

   G
E|-3-1-3-3-3-3-1-3-1-3----------------------|
B|------------------------------------------|
G|------------------------------------------|
D|------------------------------------------|
A|------------------------------------------|
E|------------------------------------------|

[Tab - Violão 2]

E|-3-3-3-3-1-3-3-3-3-3-3-3-1-3-1-3----------|
B|------------------------------------------|
G|------------------------------------------|
D|------------------------------------------|
A|------------------------------------------|
E|------------------------------------------|

[Tab - Intro]

   Dm         C       F             Eb
E|-------1----------1-----------------------|
B|-3-1-3---3--3-1-3------------1------------|
G|--------------------2--2-0-2---2----------| (2x)
D|------------------------------------------|
A|------------------------------------------|
E|------------------------------------------|

E|------------------------------------------|
B|------------------------------------------|
G|-2-2-0-2-0--------------------------------| (2x)
D|-----------3------------------------------|
A|------------------------------------------|
E|------------------------------------------|

   Dm           C          
E|-------1------8--6-8--3-------------------|
B|-3-1-3---3-1------------------------------|
G|------------------------------------------|
D|------------------------------------------|
A|------------------------------------------|
E|------------------------------------------|
   G
E|-3-1-3-3-3-3-1-3-1-3----------------------|
B|------------------------------------------|
G|------------------------------------------|
D|------------------------------------------|
A|------------------------------------------|
E|------------------------------------------|

[Primeira Parte]

Dm            C
I'm taking a ride
                    G  Riff
With my best friend
Dm         C                       G  Riff
I hope he never lets me down again
 Dm                  C
He knows where he's taking me
 G                 Bb
Taking me where I want to be
Dm            C
I'm taking a ride
                    G  Riff
With my best friend

( Dm  C  G  Riff )

[Refrão]

 Cm           Bb
We're flying high
                    Gm            F
We're watching the world pass us by
Cm                     Bb
   Never want to come down
                      Gm
Never want to put my feet back down
         F
On the ground

( Dm  C  F  Eb )

[Segunda Parte]

Dm            C
I'm taking a ride
                    G  Riff
With my best friend
Dm         C                       G  Riff
I hope he never lets me down again
  Dm                C
Promises me I'm as safe as houses
    G
As long as I remember
       Bb
Who's wearing the trousers
Dm         C                       G  Riff
I hope he never lets me down again

( Dm  C  G  Riff )

[Refrão]

 Cm           Bb
We're flying high
                    Gm            F
We're watching the world pass us by
Cm                     Bb
   Never want to come down
                      Gm
Never want to put my feet back down
         F
On the ground

 Cm           Bb
We're flying high
                    Gm            F
We're watching the world pass us by
Cm                     Bb
   Never want to come down
                      Gm
Never want to put my feet back down
         F
On the ground

( Dm  C  Am  Gm )
( Dm  C  Am  Gm )

Dm               C
   Never let me down
Am               Gm
   Never let me down
Dm               C
   Never let me down
Am               Gm
   Never let me down

[Final]

 Dm                     C
See the stars they're shining bright
Am              Gm
Everything's alright tonight
 Dm                     C
See the stars they're shining bright
Am              Gm
Everything's alright tonight
 Dm                     C
See the stars they're shining bright
Am              Gm
Everything's alright tonight
Outros vídeos desta música
    13.471 exibições
      • ½ Tom
      • Am
      • Bbm
      • Bm
      • Cm
      • C#m
      • Dm
      • Ebm
      • Em
      • Fm
      • F#m
      • Gm
      • G#m
    • Adicionar à lista

    Afinação da cifra

    Afinador online

      0 comentários

      Ver todos os comentários

      Entre para o Cifra Club PRO

      Tenha acesso a benefícios exclusivos no App e no Site

      • Chega de anúncios

      • Badges exclusivas

      • Mais recursos no app do Afinador

      • Atendimento Prioritário

      • Aumente seu limite de lista

      • Ajude a produzir mais conteúdo

      Cifra Club Pro

      Aproveite o Cifra Club com benefícios exclusivos e sem anúncios
      Cifra Club Pro
      Aproveite o Cifra Club com benefícios exclusivos e sem anúncios
      OK