Cifra Club

When The Body Speaks

Depeche Mode

Cifra: Principal (violão e guitarra)
tom: G
(verso 1)

E|-------------------------------------------------------------------------------------
B|-12-----12--15-----15--13-----13-------15-12----12--15-----15--13-----13-------15-12-
G|------12--12-----12--12-----12--12---12-------12--12-----12--12-----12--12---12------
D|-------------------------------------------------------------------------------------
A|-------------------------------------------------------------------------------------
E|-------------------------------------------------------------------------------------
To the soul's desires, the body listens; what the flesh requires keeps our heart imprisoned

E|------------------------------------------------------------------------------------
B|---12-10-----10-10\8----8----10-12---9/12---12--15-----15--13-----13-------15--12---
G|-12--------11----------9-9-----9-----9/12-----12--12-----12--12-----12--12---12--12-
D|------------------------------------------------------------------------------------
A|------------------------------------------------------------------------------------
E|------------------------------------------------------------------------------------
What the spirit seeks, the mind will follow; wehn the body speaks all else is hallow

E|---------------------------------------------------------------------------------------------
B|---------12--12-------10----10-----10-----10-----10-8---8----8----8----8-7--7----7--7---7/12-
G|-----------12--12-------11----11-----11-----11-------9---9----9----9------7--7----7--7--7/12-
D|-12-12-12-----------12----12-----------12-------------10-------10----------9-------9--9-7/12-
A|---------------------------------------------------------------------------------------------
E|---------------------------------------------------------------------------------------------
I'm just an angel, driving blindly through this world

E|---------------------------------------------------------------------------------------------
B|-----12---------12------10----10-----10-----10-----10-8---8----8----8----8-7--7----7---7-----
G|-12----12--12-12--12------11----11-----11-----11-------9---9----9----9------7--7----7---7----
D|---12----12-----------12----12-----------12-------------10-------10----------9-------9-------
A|---------------------------------------------------------------------------------------------
E|---------------------------------------------------------------------------------------------
I'm just a slave here, at the mercy of a girl...

(refrão)

    E-          B-          E-          B-          E-          B-          A-    C  B-  G
E|-7-7---7-7---7-7---7-7---7-7---7-7---7-7---7-7---7-7---7-7---7-7---7-7---5-5---8--7---3-3---3-3-
B|-8-8---8-8---7-7---7-7---8-8---8-8---7-7---7-7---8-8---8-8---7-7---7-7---5-5---8--7---3-3---3-3-
G|-9-9---9-9---7-7---7-7---9-9---9-9---7-7---7-7---9-9---9-9---7-7---7-7---5-5---9--7---4-4---4-4-
D|-9-9---9-9---9-9---9-9---9-9---9-9---9-9---9-9---9-9---9-9---9-9---9-9---7-7---10-9---5-5---5-5-
A|-7-7---7-7---9-9---9-9---7-7---7-7---9-9---9-9---7-7---7-7---9-9---9-9---7-7---10-9---5-5---5-5-
E|-7-7---7-7---7-7---7-7---7-7---7-7---7-7---7-7---7-7---7-7---7-7---7-7---5-5---8--7---3-3---3-3-
Ooh, I need your tenderness; ooh, I need your touch; ooh, I dreamed of one caress; ooh, I prayed too much

(verso 2)

E|--------------------------------------------------------------------------------------------------------
B|-12----12----15----15----13----13----13--------15--12----12----15----15----13----13----13--------15--12-
G|---12----12----12----12----12----12----12------------12----12----12----12----12----12----12-------------
D|-----12----12----12----12----12----12----12-12---------12----12----12----12----12----12----12-12--------
A|--------------------------------------------------------------------------------------------------------
E|--------------------------------------------------------------------------------------------------------
To the soul's desires, the body listens; what the flesh requires keeps our heart imprisoned

E|---------------------------------------------------------------------------------------------------------
B|-----12--12-----10----10--10-----8---8--10---12---8/12----12----15----15----13----13----13--------15--12-
G|-12--------12-----11--------11----9-------9----9------12----12----12----12----12----12----12-------------
D|---12--12-----------12--12---------10-10---10---10------12----12----12----12----12----12----12-12--------
A|---------------------------------------------------------------------------------------------------------
E|---------------------------------------------------------------------------------------------------------
what the spirit seeks, the mind will follow; when the body speaks, all else is hallow

E|---------------------------------------------------------------------------------------------------
B|-----12-----12-----12-------10----10-----10-----10-----10-8---8----8----8----8-7--7----7--7---7/12-
G|-12----12-----12-----12-------11----11-----11-----11-------9---9----9----9------7--7----7--7--7/12-
D|---12---------------------12----12-----------12-------------10-------10----------9-------9--9-7/12-
A|---------------------------------------------------------------------------------------------------
E|---------------------------------------------------------------------------------------------------
You keep me waiting for a promise that is mine

E|---------------------------------------------------------------------------------------------
B|-----12----12----12-------10----10----10----12-10-------10-8---8---8---8------8-7--7--7--7---
G|-12----12----12----12-------11----11----11-------11---------9---9---9---9--------7--7--7--7--
D|---12----12----12----12-------12----12-------------12--------10--10--10--10-------9--9--9--9-
A|---------------------------------------------------------------------------------------------
E|---------------------------------------------------------------------------------------------
Please stop debating, please stop wasting your time...

(refrão)

(outro)

E|------------------------------------------------------------------12------------
B|-12----12--15---15-13-17---13--13---15--12-----12--15---15-13---13----13--15-12-
G|-----12--12---12---------12--12---12--12-----12--12---12------12----12--12------
D|--------------------------------------------------------------------------------
A|--------------------------------------------------------------------------------
E|--------------------------------------------------------------------------------
00:00 / 00:00
Outros vídeos desta música
Repetir
Outros vídeos desta música
Composição de Martin Gore
Colaboração e revisão:
  • Jefferson Sousa
563 exibições
    • ½ Tom
    • A
    • Bb
    • B
    • C
    • Db
    • D
    • Eb
    • E
    • F
    • F#
    • G
    • Ab
  • Adicionar à lista

    0 comentários

    Ver todos os comentários

    Entre para oCifra Club PRO

    Tenha acesso a benefícios exclusivos no App e no Site

    • Chega de anúncios

    • Prioridade de compra em lançamentos

    • Mais recursos no app do Afinador

    • Atendimento Prioritário

    • Descontos nos produtos Cifra Club

    • Ajude a produzir mais conteúdo

    00:00 / 00:00

    Cifra Club Pro

    Aproveite o Cifra Club com benefícios exclusivos e sem anúncios
    Cifra Club Pro
    Aproveite o Cifra Club com benefícios exclusivos e sem anúncios
    OK