Cifra Club

Aprenda

Wedding Dress

Derek Webb

Cifra: Principal (violão e guitarra)
tom: Eb (forma dos acordes no tom de C) Capotraste na 3ª casa
(capo 3ª casa)

(intro) C      Am   F7M/C   C     Am    F7M/C    C  

E|---------------------------------------|
B|--------1------------1---1-------------|
G|------0-----0---0----0h2-0-------------|  
D|------------0h2---2---------2p0--------|  
A|---3----------------------------3p0----|
E|---------------------------------------|

E|--0----0--0--0--0--0--0-0-------|
B|--1----1--1--1--1--1--1-1-------|
G|--0h2--2--2--2--2--2--2-2-------|
D|--0h2--2--2--2--3--3--3-3-------|
A|--0----0--0--0--3--3--3-3-------|
E|--------------------------------|

E|----------------------------------------|
B|----------------------1---1-------------|
G|--------0----0---0----0h2-0-------------| 
D|------2------0h2---2---------2p0--------|
A|---3-----------------------------3p0----|
E|----------------------------------------|

Am               F7M/C       C  
  If you could love me as a wife
Am             F7M/C             C  
  And for my wedding gift, your life
Am               F7M/C          C  
  Should that be all I'll ever need?
                                Am   F7M/C    C  
  Or is there more I'm looking for

Am              F7M/C             C  
  And should I read between the lines
Am               F7M/C           C  
  And look for blessings in disguise
Am              F7M/C             C  
  To make me handsome, rich, and wise
                           Am   F   C   Gsus/B
  Is that really what you want?

             F
       Cause I am a whore I do confess
              Am
       But I put you on just like a wedding dress
             C 
       And I   run down the aisle
 Gsus/B
       Run down the aisle
               F
       I'm a prodigal with no way home
              Am
       But I put you on just like a ring of gold
             C 
       And I   run down the aisle
  Gsus/B                      Am    F7M/C    C       Am   F7M/C   C  
       Run down the aisle to you

Am              F7M/C              C  
  So could you love this bastard child?
Am                F7M/C           C  
  Though I don't trust you to provide
Am               F7M/C       C  
  With one hand in a pot of gold
                              Am       F7M/C     C   Csus   C
  And with the other in your side

Am               F7M/C       C  
  Cause I am so easily satisfied
Am                 F7M/C         C  
  By the call of lovers so less wild
Am              F7M/C         C  
  That I would take a little cash
                             Am   F    C    Gsus/B
  Over your very flesh and blood

           Gsus/B       Am
  Because money cannot buy
     Gsus/B           Am
  A husband's jealous eye
        Gsus/B         Am   C           F7M/C
  When you have knowingly deceived his wife
Composição de Derek Webb
Colaboração e revisão:
  • Lucas Gomes
476 exibições
    • ½ Tom
    • A
    • Bb
    • B
    • C
    • Db
    • D
    • Eb
    • E
    • F
    • F#
    • G
    • Ab
  • Adicionar à lista

    0 comentários

    Ver todos os comentários

    Conseguiu tocar?

    0 Tocaram 0 Ainda não

    Grave um vídeo tocando Wedding Dress e nos envie!

    00:00 / 00:00
    Outros vídeos desta música
    Repetir Qualidade Automático
    Outros vídeos desta música
    00:00 / 00:00
    Automático

    Cifra Club Pro

    Aproveite o Cifra Club com benefícios exclusivos e sem anúncios
    Cifra Club Pro
    Aproveite o Cifra Club com benefícios exclusivos e sem anúncios
    OK