Cifra Club

À La Longue

Noir Désir

Cifra: Principal (violão e guitarra)
Selo Cifra Club: esta cifra foi revisada para atender aos critérios oficiais da nossa Equipe de Qualidade.
tom: Em
E|E|--------------------------------------------------------------------------------------------------------------||
                                             Noir Désir - A La Longue
E|E|--------------------------------------------------------------------------------------------------------------||

Album : 666 667 Club 
Tempo : 98
E-mail: gwendal.mollo@orange.fr
Tabbed by: newg
              

Intro :                                       
E|----------------------------------------------------|
B|----------------------------------------------------|
G|-----------0-----------------------0----------------|
D|--2-----2--2--4-----------2-----2--2--4-------------|
A|-E|E|-2-----x--2--2-----------2-----x--2--2-------------|
E|--0| L----0L-0L-0-----------0L----0L-0L-0-------------|

                                                     
E|----------------------------------------------------|
B|----------------------------------------------------|
G|-----------0----------------------------------------|
D|--2-----2--2--4-----------2-----2--2h-4h----2-------|
A|--2-----x--2--2-----------2-----x-------------------|
--0L----0L-0L-0-----------0L----0L-0----------------|

                                                             
E|----------------------------------------------------|-------|
B|----------------------------------------------------|-------|
G|----------------------------------------------------|-------|
D|--------------------5-------------------------------|--5----|
A|--------------------5| L----------------------5L------|--5----|
E|--3--------3| L-------3L----------------------3L------|--3----|

                                                     
E|----------------------------------------------------|
B|----------------------------------------------------|
G|-----------0-----------------------0----------------|
D|--2-----2--2--4-----------2-----2--2--4-------------|
A|-E|E|-2-----x--2--2-----------2-----x--2--2-------------|
--0L----0L-0L-0-----------0L----0L-0L-0-------------|

                                                     
E|----------------------------------------------------|
B|----------------------------------------------------|
G|-----------0----------------------------------------|
D|--2-----2--2--4-----------2-----2--2h-4h----2-------|
A|--2-----x--2--2-----------2-----x-------------------|
--0L----0L-0L-0-----------0L----0L-0----------------|

                                                              
E|----------------------------------------------------|-------| |
B|----------------------------------------------------|-------| |
G|----------------------------------------------------|-------| |
D|--------------------5| L----------------------5L------|--5~---||
A|-----------2| L-------2L----------------------2L------|--2----||
E|--3~-------3| L-------3L----------------------3L------|--3~---||

Couplet 1 & 2                                                    
E|-0-----0| L-0L-0-----------------0L-0----------------|
B|-0-----0--0--------------------0--0----------------|
o0-----0--0--------------0-----0--0----------------|
o2-----2--2--4-----------2-----2--2--4-------------|
E|E|-2-----x--2--2-----------2-----x--2--2-------------|
-0L----0L-0L-0-----------0L----0L-0L-0-------------|

                                                     
--0L----0L-0L-0-------------------------------------|
E|--0-----0--0--------------0| L----0-------------------|
B|--0-----0--0--------------0| L----0-------------------|
G|--2-----2--2--4-----------2-----2--2h-4h----2-------|
D|--2-----x--2--2-----------2-----x-------------------|
--0L----0L-0L-0-----------0L----0L-0----------------|

                    ^                                
E|--------------------3-----------------------3-------|
B|--------------------3-----------------------3-------|
G|--------------------4-----------------x-----4-------|
D|--------------------5-----------------x-----5-------|
A|--5--------5--------5-----------------x-----5-------|
E|--3--------3----------------------------------------|

                                                     
E|--3--------3----------------------------------------|
B|--3--------3----------------------------------------|
G|--4--------4-----------5~----------5~---------------|
D|--5--------5----------------------------------------|
A|--5--------5----------------------------------------|
E|----------------------------------------------------|

                                                     
--0-----0L-0L-0-----------------0L-0----------------|
--0-----0--0--------------------0--0----------------|
--0-----0--0--------------0-----0--0----------------|
--2-----2--2--4-----------2-----2--2--4-------------|
-E|E|-2-----x--2--2-----------2-----x--2--2-------------|
--0L----0L-0L-0-----------0L----0L-0L-0-------------|

                                                     
--0L----0L-0L-0-------------------------------------|
E|--0-----0--0--------------0| L----0-------------------|
B|--0-----0--0--------------0| L----0-------------------|
G|--2-----2--2--4-----------2-----2--2h-4h----2-------|
D|--2-----x--2--2-----------2-----x-------------------|
--0L----0L-0L-0-----------0L----0L-0----------------|

                                                     
E|--------------------3| L----------------------3-------|
B|--------------------3| L----------------------3-------|
G|--------------------0| L----------------------0-------|
D|----------------------------------------------------|
A|----------------------------------------------------|
E|--3~-------3~---------------------------------------|

                                                     
--0L-0--0L-0--0L----0--0L----0--3-----3-----3-------|
E|--3--3--3--3--3-----3--3-----3--1-----1-----0-------|
B|--0--0--0--0--0-----0--0-----0--0-----0-----0-------|
G|--0--0--0--0--0-----0--0-----0--0-----0-----0-------|
D|--2--2--2--2--2-----2--2-----2--2-----2-----2-------|
A|--3--3--3--3--3-----3--3-----3--3-----3-----3-------|


Refrain 1 : 
                                                     
E|--3--3--3--3--3-----3--3--3--3--3--3-----3-----3----|
B|--5--5--5--5--5-----5--5--5--5--5--5-----5-----5----|
--4L-4L-4L-4--------4L-4--4L-4L-4L-4-----4----------|
E|----------------------------------------------------|
B|----------------------------------------------------|
G|----------------------------------------------------|

                                                     
E|--3--3--3--3--3-----3--3--3--3--3--3-----3-----3----|
B|--5--5--5--5--5-----5--5--5--5--5--5-----5-----5----|
--4L-4L-4L-4--------4L-4--4L-4L-4L-4-----4----------|
E|----------------------------------------------------|
B|----------------------------------------------------|
G|----------------------------------------------------|

                                                     
E|--------------------3-----------3--------3----------|
B|--------------------0-----------0--------0----------|
G|--------------------0-----------0--------0----------|
D|----------------------------------------------------|
A|----------------------------------------------------|
E|--3~-------3~---------------------------------------|

                                                     
E|----------------------------------------------------|
B|----------------------------------------------------|
G|--7-----7--------7-----7--7--------5-----4----------|
--0L----0-----0-----------------0--------------0----|
E|----------------------------------------------------|
B|----------------------------------------------------|

                                                     
--0-----0L-0L-0-----------------0L-0----------------|
--0-----0--0--------------------0--0----------------|
--0-----0--0--------------0-----0--0----------------|
--2-----2--2--4-----------2-----2--2--4-------------|
-E|E|-2-----x--2--2-----------2-----x--2--2-------------|
--0L----0L-0L-0-----------0L----0L-0L-0-------------|

                                                     
--0L----0L-0L-0-------------------------------------|
E|--0-----0--0--------------0| L----0-------------------|
B|--0-----0--0--------------0| L----0-------------------|
G|--2-----2--2--4-----------2-----2--2h-4h----2-------|
D|--2-----x--2--2-----------2-----x-------------------|
--0L----0L-0L-0-----------0L----0L-0----------------|

                                                     
--------------------3L----------------------3-------|
--------------------0L----------------------0-------|
--------------------0L----------------------0-------|
E|----------------------------------------------------|
B|----------------------------------------------------|
--3~-------3~---------------------------------------|

                                                     
E|--3--------3--------3-----------3-----3-----0------| |
B|--0--------0--------0-----------0-----0-----0------| |
G|--0--------0--------0-----------0-----0-----------o| |
D|--------------------------------------------------o| |
A|---------------------------------------------------| |
E|---------------------------------------------------| |

                                                     
E|----------------------------------------------------|
B|----------------------------------------------------|
--7-----7--7--7--7~----7~-------5--------4----------|
--0L----0--0--0L-0-----0-----------------------0----|
E|----------------------------------------------------|
B|----------------------------------------------------|

Solo 1                                                     
--0-----0L-0L-0-----------------0L-0----------------|
--0-----0--0--------------------0--0----------------|
--0-----0--0--------------0-----0--0----------------|
--2-----2--2--4-----------2-----2--2--4-------------|
-E|E|-2-----x--2--2-----------2-----x--2--2-------------|
--0L----0L-0L-0-----------0L----0L-0L-0-------------|

                                                     
--0L----0L-0L-0-------------------------------------|
E|--0-----0--0--------------0| L----0-------------------|
B|--0-----0--0--------------0| L----0-------------------|
G|--2-----2--2--4-----------2-----2--2h-4h----2-------|
D|--2-----x--2--2-----------2-----x-------------------|
--0L----0L-0L-0-----------0L----0L-0----------------|

                    ^                                
E|--------------------3-----------------------3-------|
B|--------------------3-----------------------3-------|
G|--------------------4-----------------x-----4-------|
D|--------------------5-----------------x-----5-------|
A|--5--------5--------5-----------------x-----5-------|
E|--3--------3----------------------------------------|

                                                     
E|--3--------3--------3-------------------------------|
B|--3--------3--------3-------------------------------|
G|--4--------4--------4-----------------5~------------|
D|--5--------5--------5-------------------------------|
A|--5--------5--------5-------------------------------|
E|--------------------3-------------------------------|

                                                     
--0-----0L-0L-0-----------------0L-0----------------|
--0-----0--0--------------------0--0----------------|
--0-----0--0--------------0-----0--0----------------|
--2-----2--2--4-----------2-----2--2--4-------------|
-E|E|-2-----x--2--2-----------2-----x--2--2-------------|
--0L----0L-0L-0-----------0L----0L-0L-0-------------|

                                                     
--0L----0L-0L-0-------------------------------------|
E|--0-----0--0--------------0| L----0-------------------|
B|--0-----0--0--------------0| L----0-------------------|
G|--2-----2--2--4-----------2-----2--2h-4h----2-------|
D|--2-----x--2--2-----------2-----x-------------------|
--0L----0L-0L-0-----------0L----0L-0----------------|

                                                     
E|--------------------3| L----------------------3-------|
B|--------------------3| L----------------------3-------|
G|--------------------0| L----------------------0-------|
D|----------------------------------------------------|
A|----------------------------------------------------|
E|--3~-------3~---------------------------------------|

                                                     
--x--x--x--x--x-----x--x-----x--x-----x-----0-------|
E|--3--3--3--3--3-----3--3-----3--1-----1-----0-------|
B|--0--0--0--0--0-----0--0-----0--0-----0-----0-------|
G|--0--0--0--0--0-----0--0-----0--0-----0-----0-------|
D|--2--2--2--2--2-----2--2-----2--2-----2-----2-------|
A|--3--3--3--3--3-----3--3-----3--3-----3-----3-------|

Couplet 3                                                     
--0-----0L-0L-0-----------------0L-0----------------|
--0-----0--0--------------------0--0----------------|
--0-----0--0--------------0-----0--0----------------|
--2-----2--2--4-----------2-----2--2--4-------------|
-E|E|-2-----x--2--2-----------2-----x--2--2-------------|
--0L----0L-0L-0-----------0L----0L-0L-0-------------|

                                                     
--0L----0L-0L-0-------------------------------------|
E|--0-----0--0--------------0| L----0-------------------|
B|--0-----0--0--------------0| L----0-------------------|
G|--2-----2--2--4-----------2-----2--2h-4h----2-------|
D|--2-----x--2--2-----------2-----x-------------------|
--0L----0L-0L-0-----------0L----0L-0----------------|

                                                     
--------------------3L----------------------3-------|
--------------------0L----------------------0-------|
--------------------0L----------------------0-------|
E|----------------------------------------------------|
B|----------------------------------------------------|
--3~-------3~---------------------------------------|

                                                     
--2-----2-----2-----2-----2-----------0-------------|
-----3-----3-----3-----3----------------------------|
E|----------------------------------------------------|
B|----------------------------------------------------|
G|E|----------------------------------------------------|
B|----------------------------------------------------|

                                                     
--0-----0L-0L-0-----------------0L-0----------------|
--0-----0--0--------------------0--0----------------|
--0-----0--0--------------0-----0--0----------------|
--2-----2--2--4-----------2-----2--2--4-------------|
-E|E|-2-----x--2--2-----------2-----x--2--2-------------|
--0L----0L-0L-0-----------0L----0L-0L-0-------------|

                                                     
--0L----0L-0L-0-------------------------------------|
E|--0-----0--0--------------0| L----0-------------------|
B|--0-----0--0--------------0| L----0-------------------|
G|--2-----2--2--4-----------2-----2--2h-4h----2-------|
D|--2-----x--2--2-----------2-----x-------------------|
--0L----0L-0L-0-----------0L----0L-0----------------|

                                                     
E|--------------------3| L----------------------3-------|
B|--------------------3| L----------------------3-------|
G|--------------------0| L----------------------0-------|
D|----------------------------------------------------|
A|----------------------------------------------------|
E|--3~-------3~---------------------------------------|

                                                     
--x--x--x--x--x-----x--x-----x--x-----x-----0-------|
E|--3--3--3--3--3-----3--3-----3--1-----1-----0-------|
B|--0--0--0--0--0-----0--0-----0--0-----0-----0-------|
G|--0--0--0--0--0-----0--0-----0--0-----0-----0-------|
D|--2--2--2--2--2-----2--2-----2--2-----2-----2-------|
A|--3--3--3--3--3-----3--3-----3--3-----3-----3-------|

                  
Refrain 2 :
                                   
----------------------------------------------------|
-----12~---12~12~-----------------------------------|
--12~---12L12L12~-----------------------------------|
E|----------------------------------------------------|
B|----------------------------------------------------|
G|----------------------------------------------------|

                                                                
E|----------------------------------------------------|----------|
B|-----13~---13| L13~---------------------12~-----------|----------|
G|--12~---12| L12L12~-----------------------------------|--12~12~--|
D|----------------------------------------------------|----------|
A|----------------------------------------------------|----------|
E|----------------------------------------------------|----------|

                                                     
E|----------------------------------------------------|
B|----------------------------------------------------|
G|--7-----7--------7-----7--7--------5-----4----------|
--0L----0-----0-----------------0-------------------|
E|----------------------------------------------------|
B|----------------------------------------------------|

                                                     
--0-----0L-0L-0-----------------0L-0----------------|
--0-----0--0--------------------0--0----------------|
--0-----0--0--------------0-----0--0----------------|
--2-----2--2--4-----------2-----2--2--4-------------|
-E|E|-2-----x--2--2-----------2-----x--2--2-------------|
--0L----0L-0L-0-----------0L----0L-0L-0-------------|

                                                     
--0L----0L-0L-0-------------------------------------|
E|--0-----0--0--------------0| L----0-------------------|
B|--0-----0--0--------------0| L----0-------------------|
G|--2-----2--2--4-----------2-----2--2h-4h----2-------|
D|--2-----x--2--2-----------2-----x-------------------|
--0L----0L-0L-0-----------0L----0L-0----------------|

                                                     
--------------------3L----------------------3-------|
--------------------0L----------------------0-------|
--------------------0L----------------------0-------|
E|----------------------------------------------------|
B|----------------------------------------------------|
--3~-------3~---------------------------------------|

                                                     
--3--------3--------3-----------3-----3-----0-------|
--0--------0--------0-----------0-----0-----0-------|
--0--------0--------0-----------0-----0-------------|
E|----------------------------------------------------|
B|----------------------------------------------------|
G|----------------------------------------------------|


Couplet 4 :
                                                     
--0-----0L-0L-0-----------------0L-0----------------|
--0-----0--0--------------------0--0----------------|
--0-----0--0--------------0-----0--0----------------|
--2-----2--2--4-----------2-----2--2--4-------------|
-E|E|-2-----x--2--2-----------2-----x--2--2-------------|
--0L----0L-0L-0-----------0L----0L-0L-0-------------|

                                                     
--0L----0L-0L-0-------------------------------------|
E|--0-----0--0--------------0| L----0-------------------|
B|--0-----0--0--------------0| L----0-------------------|
G|--2-----2--2--4-----------2-----2--2h-4h----2-------|
D|--2-----x--2--2-----------2-----x-------------------|
--0L----0L-0L-0-----------0L----0L-0----------------|

                                                     
E|--------------------3| L----------------------3-------|
B|--------------------3| L----------------------3-------|
G|--------------------0| L----------------------0-------|
D|----------------------------------------------------|
A|----------------------------------------------------|
E|--3~-------3~---------------------------------------|

                                                     
E|----------------------------------------------------|
B|----------------------------------------------------|
G|E|----------------------------------------------------|
B|----------------------------------------------------|
--3--------3--------3L----------3~-2--------0-------|
----------------------------------------------------|

                                                     
--0-----0L-0L-0-----------------0L-0----------------|
--0-----0--0--------------------0--0----------------|
--0-----0--0--------------0-----0--0----------------|
--2-----2--2--4-----------2-----2--2--4-------------|
-E|E|-2-----x--2--2-----------2-----x--2--2-------------|
--0L----0L-0L-0-----------0L----0L-0L-0-------------|

                                                                               
--0L----0L-0L-0-------------------------------------|-------|----------------||
E|--0-----0--0--------------0| L----0-------------------|-------|----------------||
B|--0-----0--0--------------0| L----0-------------------|--4----|--3s-------8----||
G|--2-----2--2--4-----------2-----2--2h-4h----2-------|--2----|--0-------------| |
D|--2-----x--2--2-----------2-----x-------------------|--2----|--2s-------7----| |
--0L----0L-0L-0-----------0L----0L-0----------------|--0----|--0-------------||

Solo Fin :
                                                    
E|-0-----0| L-0L-0-----------------0L-0----------------|
B|-0-----0--0--------------------0--0----------------|
o0-----0--0--------------0-----0--0----------------|
o2-----2--2--4-----------2-----2--2--4-------------|
E|E|-2-----x--2--2-----------2-----x--2--2-------------|
-0L----0L-0L-0-----------0L----0L-0L-0-------------|

                                                     
--0L----0L-0L-0-------------------------------------|
E|--0-----0--0--------------0| L----0-------------------|
B|--0-----0--0--------------0| L----0-------------------|
G|--2-----2--2--4-----------2-----2--2h-4h----2-------|
D|--2-----x--2--2-----------2-----x-------------------|
--0L----0L-0L-0-----------0L----0L-0----------------|

                    ^                                
E|--------------------3-----------------------3-------|
B|--------------------3-----------------------3-------|
G|--------------------4-----------------x-----4-------|
D|--------------------5-----------------x-----5-------|
A|--5--------5--------5-----------------x-----5-------|
E|--3--------3----------------------------------------|

                                                     
E|--3--------3--------3-------------------------------|
B|--3--------3--------3-------------------------------|
G|--4--------4--------4-----------------5~------------|
D|--5--------5--------5-------------------------------|
A|--5--------5--------5-------------------------------|
E|--------------------3-------------------------------|

                                                     
--0-----0L-0L-0-----------------0L-0----------------|
--0-----0--0--------------------0--0----------------|
--0-----0--0--------------0-----0--0----------------|
--2-----2--2--4-----------2-----2--2--4-------------|
-E|E|-2-----x--2--2-----------2-----x--2--2-------------|
--0L----0L-0L-0-----------0L----0L-0L-0-------------|

                                                     
--0L----0L-0L-0-------------------------------------|
E|--0-----0--0--------------0| L----0-------------------|
B|--0-----0--0--------------0| L----0-------------------|
G|--2-----2--2--4-----------2-----2--2h-4h----2-------|
D|--2-----x--2--2-----------2-----x-------------------|
--0L----0L-0L-0-----------0L----0L-0----------------|

                                                     
E|--------------------3| L----------------------3-------|
B|--------------------3| L----------------------3-------|
G|--------------------0| L----------------------0-------|
D|----------------------------------------------------|
A|----------------------------------------------------|
E|--3~-------3~---------------------------------------|

                                                       ^
E|--x--x--x--x--x-----x--x-----x--x-----x-----0------| |--0L---|--0----||
B|--3--3--3--3--3-----3--3-----3--1-----1-----0------| |--0L---|--0----||
G|--0--0--0--0--0-----0--0-----0--0-----0-----0-----o| |--0L---|--0----||
D|--0--0--0--0--0-----0--0-----0--0-----0-----0-----o| |--2L---|--2----||
A|--2--2--2--2--2-----2--2-----2--2-----2-----2------| |--2L---|--2----||
E|--3--3--3--3--3-----3--3-----3--3-----3-----3------| |--0L---|--0----||


****************************************************************



Harmonica :

Solo 1
E|-----------------------|----------------------------|
B|------14s15------------|--14b12----------------15---|
G|-----------------------|--------14s12---------------|
D|-----------------------|----------------------------|
A|-----------------------|----------------------------|
E|-----------------------|----------------------------|

E|----------------------------|-------|----------------------------|
B|--14b12-------------10------|--12| L--|--12-------------------15---|
G|--------14s12| L---12---------|-------|----------------------------|
D|----------------------------|-------|----------------------------|
A|----------------------------|-------|----------------------------|
E|----------------------------|-------|----------------------------|

E|----------------------------|----------------------------|-------|
B|--14b---12-------------15---|--14b---12----------10------|-------|
G|-----------14s12------------|-----------14s12------------|-------|
D|----------------------------|----------------------------|--14| L--|
A|----------------------------|----------------------------|-------|
E|----------------------------|----------------------------|-------|

E|----------------------------|
B|----------------------------|
G|----------------------------|
D|--14------------------------|
A|----------------------------|
E|----------------------------|

Solo 2
E|-----------------------| |---------------------------|
B|------14s15------------| |-14b12----------------15---|
G|-----------------------| |o------14s12---------------|
D|-----------------------| |o--------------------------|
A|-----------------------| |---------------------------|
E|-----------------------| |---------------------------|

E|----------------------------|-------|----------------------------|
B|--14b12-------------10------|--12| L--|--12-------------------15---|
G|--------14s12| L---12---------|-------|----------------------------|
D|----------------------------|-------|----------------------------|
A|----------------------------|-------|----------------------------|
E|----------------------------|-------|----------------------------|

E|----------------------------|----------------------------|-------|
B|--14b---12-------------15---|--14b---12----------10------|-------|
G|-----------14s12------------|-----------14s12------------|-------|
D|----------------------------|----------------------------|--14| L--|
A|----------------------------|----------------------------|-------|
E|----------------------------|----------------------------|-------|

E|---------------------------|
B|---------------------------|
G|--------------------------o|
D|--14----------------------o|
A|---------------------------|
E|---------------------------|
Outros vídeos desta música
    17 exibições
      • ½ Tom
      • Am
      • Bbm
      • Bm
      • Cm
      • C#m
      • Dm
      • Ebm
      • Em
      • Fm
      • F#m
      • Gm
      • G#m
    • Adicionar à lista

    Afinação da cifra

    Afinador online

      0 comentários

      Ver todos os comentários

      Conseguiu tocar?

      0Tocaram0Ainda não

      Grave um vídeo tocando À La Longue e nos envie!

      Toque também

      1. Imagem do artista Louise AttaqueTes Yeux Se Moquent Louise Attaque
      2. Imagem do artista MatmatahRibettes Matmatah
      3. Imagem do artista Alain BashungOsez Joséphine Alain Bashung
      4. Imagem do artista EiffelAu Néant Eiffel

      Entre para o Cifra Club PRO

      Tenha acesso a benefícios exclusivos no App e no Site

      • Chega de anúncios

      • Badges exclusivas

      • Mais recursos no app do Afinador

      • Atendimento Prioritário

      • Aumente seu limite de lista

      • Ajude a produzir mais conteúdo

      Cifra Club Pro

      Aproveite o Cifra Club com benefícios exclusivos e sem anúncios
      Cifra Club Pro
      Aproveite o Cifra Club com benefícios exclusivos e sem anúncios
      OK