Cifra Club

Gorilón

Desorden Público

Cifra: Principal (violão e guitarra)
tom: Em
INTRO

E|------------------------------------------|
B|------------------------------------------|
G|------------------------------------------|
D|--------4-2-1----4-2-1-----4-2-0---4-2----|
A|-0-1-2*-------0*-------2/5-------0--------|
E|------------------------------------------| (x2)

        B       F#m         D       A

E|------------------------------------------|
B|------------------------------------------|
G|------------------------------------------|
D|--------4-2-1----4-2-1-----4-2-0---4-2----|
A|-0-1-2*-------0*-------2/5-------0--------|
E|------------------------------------------| (x2)


MELODÍA

    B       F#m      B               F#m

E|-------------------------------------------|
B|-10-10------9-----12-12-12-12-12------9----|
G|-------9-11---11*----------------9-11---11-|
D|-------------------------------------------|
A|-------------------------------------------|
E|-------------------------------------------(x2)|




CORO

   B        F#m
¿Qué fue lo que pasó?
B                        F#m
Vino el gran gorila y se la llevó
  B         F#m
¿Qué fue lo que pasó?
B                        F#m
Vino el gran gorila y se la llevó
     B
Gorilón


1

           F#m                 B
Suéltala suéltala bribón (gorilón)
                         F#m                        B
Se tiró el viaje hasta aquí y me la secuestró (gorilón)
           F#m               B
No busques tanto pleito gorilón
            F#m
Suéltala Magila, déjala libre gorila



CORO

   B        F#m
¿Qué fue lo que pasó?
B                        F#m
Vino el gran gorila y se la llevó
  B         F#m
¿Qué fue lo que pasó?
B                        F#m
Vino el gran gorila y se la llevó
     B
Gorilón

2
          F#m                 B
Barbarazo mono abusador (gorilón)
           F#m                 B
El queso que había en la mesa también se lo comio (gorilón)
           F#m                 B
Mientras más grande más duro caen (gorilón)
           F#m                 B
Pregúntale a King-Kong allá en Nueva York



   B        F#m
¿Qué fue lo que pasó?
B                        F#m
Vino el gran gorila y se la llevó
  B         F#m
¿Qué fue lo que pasó?
B                        F#m
Vino el gran gorila y se la llevó



INSTRUMENTAL
A, E, F#m (x3)
D, A, C, G, B, E...


SECCIÓN DE PERCUB ÓN
Silencio de 11 compases.
En el compás 12, entra en anacruza.



INTRO
        B       F#m         D       A

E|------------------------------------------|
B|------------------------------------------|
G|------------------------------------------|
D|--------4-2-1----4-2-1-----4-2-0---4-2----|
A|-0-1-2*-------0*-------2/5-------0--------|
E|------------------------------------------| (x2)



   B        F#m
¿Qué fue lo que pasó?
D                     A
Vino el gran gorila, vino el gran gorila!
   B        F#m
¿Qué fue lo que pasó?
D                     A
Vino el gran gorila, vino el gran gorila!
   B        F#m
¿Qué fue lo que pasó?
D                     A
Vino el gran gorila, vino el gran gorila!
   B        F#m
¿Qué fue lo que pasó?
D                     A
Vino el gran gorila, vino el gran gorila!



OUTRO
D, A, B (x3)
D, A
00:00 / 00:00
Outros vídeos desta música
Repetir
Outros vídeos desta música
Composição de Horacio Blanco
7 exibições
    • ½ Tom
    • Am
    • Bbm
    • Bm
    • Cm
    • C#m
    • Dm
    • Ebm
    • Em
    • Fm
    • F#m
    • Gm
    • G#m
  • Adicionar à lista

    0 comentários

    Ver todos os comentários

    Conseguiu tocar?

    0 Tocaram 0 Ainda não

    Grave um vídeo tocando Gorilón e nos envie!

    Entre para oCifra Club PRO

    Tenha acesso a benefícios exclusivos no App e no Site

    • Chega de anúncios

    • Prioridade de compra em lançamentos

    • Mais recursos no app do Afinador

    • Atendimento Prioritário

    • Descontos nos produtos Cifra Club

    • Ajude a produzir mais conteúdo

    00:00 / 00:00

    Cifra Club Pro

    Aproveite o Cifra Club com benefícios exclusivos e sem anúncios
    Cifra Club Pro
    Aproveite o Cifra Club com benefícios exclusivos e sem anúncios
    OK