Cifra Club

In Your Arms

Destine

Cifra: Principal (violão e guitarra)
exibições 3.820
Tom: G
(intro)

E|---------------------------------------------------------------|
B|------- 9-9-9-6-6-6-6-6-6-4-4-4-4-4-44-4-4-4-4--6-6-6-4-4-2-2--|
G|6-6-6----------------------------------------------------------|
D|---------------------------------------------------------------|
A|---------------------------------------------------------------|
E|---------------------------------------------------------------|  (2x)

E|----------------------------------------------------------------------------|
B|------- 9-9-9-6-6-6-6-6-6-4-4-4-4-4-4-4-4-4-4-4--6-6-6-4-4-2-2--------------|
G|6-6-6----------------------------------------------------------3------------|
D|----------------------------------------------------------------------------|
A|----------------------------------------------------------------------------|
E|----------------------------------------------------------------------------|

(verso)

Palm Mute!
E|---------------------------------------------------------|
B|------- -------------------------------------------------|
G|---------------------------------------------------------|
D|-8-----------6--------------4----------------------------|
A|-8---x12-----6----x12-------4---x20----------------------|
E|-6-----------4--------------2----------------------------|   (2x)

(pré-refrão)

Palm Mute
E|-------------------------------------------------------------|
B|------- -----------------------------------------------------|
G|-------------------------------------------------------------|
D|-8-----------6--------------3----------4---------------------|
A|-8---x12-----6----x12-------3---x12----4---x8----------------|
E|-6-----------4--------------1----------2---------------------|

(refrão)
E|-----------------------------------------------------------------|
B|------- ---------------------------------------------------------|
G|-----------------------------------------------------------------|
D|-4-----------8--------------6-------------3----------------------|
A|-4---x6------8----x6--------6---x6------3----x6------------------|
E|-2-----------6--------------4-------------1----------------------|  (4x)

(outro)
E|---------------------------------------------------------------|
B|------- 9-9-9-6-6-6-6-6-6-----------9-9-9--13-9----------------|
G|6-6-6-------------------------6-6-6----------------------------|
D|---------------------------------------------------------------|
A|---------------------------------------------------------------|
E|---------------------------------------------------------------|

(verso 2)
Palm Mute!
E|------------------------------------------------|
B|------- ----------------------------------------|
G|------------------------------------------------|
D|-8-----------6--------------4-------------------|
A|-8---x12-----6----x12---------4---x20-----------|
E|-6-----------4--------------2-------------------|  (2x)

(pré-refrão 2)
Palm Mute
E|----------------------------------------------------------|
B|------- --------------------------------------------------|
G|----------------------------------------------------------|
D|-8-----------6--------------3----------4------------------|
A|-8---x12-----6----x12-------3---x12----4---x8-------------|
E|-6-----------4--------------1----------2------------------|

(refrão 2)
E|-------------------------------------------------------------|
B|------- -----------------------------------------------------|
G|-------------------------------------------------------------|
D|-4-----------8--------------6-------------3------------------|
A|-4---x6------8----x6--------6---x6--------3----x6------------|
E|-2-----------6--------------4-------------1------------------|  (4x)

(ponte)
E|-----------------------------------------------|
B|------- ---------------------------------------|
G|-----------------------------------------------|
D|-4-----------8--------------6------------------|
A|-4---x12-----8----x6--------6---x8-------------|
E|-2-----------6--------------4------------------|  (3x)

(ponte 2)

(pós-refrão)
E|-----------------------------------------------------------|
B|------- ---------------------------------------------------|
G|-----------------------------------------------------------|
D|-4-----------8--------------6-------------3----------------|
A|-4---x6------8----x6--------6---x6--------3----x6----------|
E|-2-----------6--------------4-------------1----------------|  (4x)

(outro)
E|-----------------------------------------------------------------|
B|------- 9-9-9-6-6-6-6-6-6-----------9-9-9--13-9------------------|
G|6-6-6-------------------------6-6-6------------------------------|
D|-----------------------------------------------------------------|
A|-----------------------------------------------------------------|
E|-----------------------------------------------------------------| (2x)

E|---------------------------------------------------|
B|---------------------------------------------------|
G|------------6--------------------------------------|
D|-4----------6---x2----4----------------------------|
A|-4---x3-----4---------4----------------------------|
E|-2--------------------2----------------------------|
Acordes para:
    Composição: Bart Voncken / Robin Van Loenen Colaboração e revisão:
    • Julio Lozovei

    0 comentários

    mostrar mais comentários

    Conseguiu tocar?

    7 tocaram 0 ainda não

    Grave um vídeo tocando In Your Arms e mande pra gente!

    00:00 / 00:00
    outros vídeos desta música
    repetir qualidade Automático
    Outros vídeos desta música
    00:00 / 00:00
    Automático
    OK