Cifra Club

Só Nós Dois

Detonautas

Cifra: Completa
exibições 8.651
Tom: C
                   Am
Agora somos só nós dois
   G                                 E      F
E não, temos que provar pra mais ninguém, amor
     Am                               G
Eles não, conseguem perceber como é real
                              E      F
Que a gente se encante com alguém, assim

 Am                         G                            E
Existem mil mistérios que renovam os nossos planos de seguir
                   F
Acreditando nesse nosso amor
  Am                       G                           E
E nada do que digam vai mudar o que pensamos, deixa estar
                      F
E agora vamos, já chegou!

Refrão:
        Am              G
Meu coração vai te mostrar
           E                   F
Que esse amor não precisa esperar (2x)

                 Am
Não precisa esperar
Solo:
    Am                               G
E|-----------------------------------------------------------------
B|-----10-----10-----10-----5-----5--------------------------------
G|-7h9----7h9----7h9----5h7---5h7-------5-----5---------------5h7--
D|----------------------------------5h7---5h7---7p5-------5h7------
A|--------------------------------------------------7-5h7----------
E|-----------------------------------------------------------------
       Dm
E|---------------------------8---7---8-----------
B|-----8---10---8---10---8---------------8---10--
G|-7/9---9----9---9----9---9---9---9---9---9-----
D|-----------------------------------------------
A|-----------------------------------------------
E|-----------------------------------------------
             Am                           G
E|--------------------------------------------------------------------
B|--------------------------------------------------------------------
G|-12-12-12-12\9-9-9-9\7-7-7-7\5-5-5-5\4-4-5\4-5\4-5\4-5\4------------
D|---------------------------------------------------------5/7-5------
A|---------------------------------------------------------------5/7--
E|--------------------------------------------------------------------
    Dm                                                      Am
E|---------------------------------17-15-------17-15--------------
B|-8/10-10-10/12-12/13-13/15-15/17-------15/17-------15/17-15/17--
G|----------------------------------------------------------------
D|----------------------------------------------------------------
A|----------------------------------------------------------------
E|----------------------------------------------------------------

Refrão:

        Am              G
Meu coração vai te mostrar
           E                   F
Que esse amor não precisa esperar (3x)

                 Am
Não precisa esperar
Solo final:
   Am
E|------------------
B|---1-0-1-3-1-0-1--
G|------------------
D|------------------
A|-0----------------
E|------------------ (4x)
Acordes para:
    Colaboração e revisão:
    • Edson Lins

    0 comentários

      mostrar mais comentários

      Conseguiu tocar?

      6tocaram0ainda não

      Grave um vídeo tocando Só Nós Dois e mande pra gente!

      00:00 / 00:00
      outros vídeos desta música
      repetirqualidadeautomática
      Outro vídeos desta música
        00:00 / 00:00
        automática
        OK