Cifra Club

Aprenda

Só Nós Dois

Detonautas

Cifra: Versão 4 (violão e guitarra)
tom: C (forma dos acordes no tom de G) Capotraste na 5ª casa
(capo 5ª casa)

E|-------------------------------------------------------|
B|----10----10----10-----5----5--------------------------|
G|-7/9---7/9---7/9----5/7--5/7-----5----5----------------|
D|------------------------------5/7--5/7-----5----5----5-|
A|----------------------------------------5/7--5/7--5/7--|
E|-------------------------------------------------------|
                                    (slide)
E|-------------------8--7--8--------|----------------------------------------------------------------|
B|--8--10--8--10--8-----------8--10-|--8-8-8-8/5-5-5-5-----------------------------------------------|
G|-9--9---9--9---9--9--9--9--9--9---|------------------/7-7-7-7/5-5-5-5------------------------------|
D|----------------------------------|-----------------------------------/9/10-9/10-9/10-9/10/9-5/7-5-|
A|----------------------------------|----------------------------------------------------------------|
E|----------------------------------|----------------------------------------------------------------|

E|----------------------------------17--15------17---15/17~~---------------|
B|---8/10-10/12-12/13-13/15----15/17--17---15/17--17-------15/17-15/17~~~~-|
G|-------------------------------------------------------------------------|
D|-------------------------------------------------------------------------|
A|-------------------------------------------------------------------------|
E|-------------------------------------------------------------------------|
Compositor não encontrado.
Colaboração e revisão:
  • rafael souza
2.188 exibições
    • ½ Tom
    • A
    • Bb
    • B
    • C
    • Db
    • D
    • Eb
    • E
    • F
    • F#
    • G
    • Ab
  • Adicionar à lista

    0 comentários

    Ver todos os comentários
    00:00 / 00:00
    Outros vídeos desta música
    Repetir Qualidade Automático
    Outros vídeos desta música
    00:00 / 00:00
    Automático

    Cifra Club Pro

    Aproveite o Cifra Club com benefícios exclusivos e sem anúncios
    Cifra Club Pro
    Aproveite o Cifra Club com benefícios exclusivos e sem anúncios
    OK