Cifra Club

Pocket Revolution

dEUS

Cifra: Principal (violão e guitarra)
tom: F
I found just a little part of the song, but if this little tab inspires someone else to 
the whole song ;-)

the bassline


E       |----------------------------------------------------------------|
B       |----------------------------------------------------------------|
G       |----------------------------------------------------------------|
D       |----------------------------------------------------------------|
A       |----------------------------------------------------------------|
E       |--------3-3-3-3-6-3-3-3-3-8-------------------------------------|

The chorus


E       |---------------------------------------------------------------|
B       |---------------------------------------------------------------|
G       |------------------6----7---- 9-----4---------------------------|
D       |-----------12-----7----8----10---- 5---------------------------|
A       |-----------12-----7----8--- 10-----5---------------------------|
E       |-----------10-----5----6-----8-----3---------------------------|


The chorus is 100% right, I watched them play it live
Composição de dEUS / Tom Barman
433 exibições
    • ½ Tom
    • A
    • Bb
    • B
    • C
    • Db
    • D
    • Eb
    • E
    • F
    • F#
    • G
    • Ab
  • Adicionar à lista

    0 comentários

    Ver todos os comentários

    Conseguiu tocar?

    0 Tocaram 0 Ainda não

    Grave um vídeo tocando Pocket Revolution e nos envie!

    00:00 / 00:00
    Outros vídeos desta música
    Repetir Qualidade Automático
    Outros vídeos desta música
    00:00 / 00:00
    Automático

    Cifra Club Pro

    Aproveite o Cifra Club com benefícios exclusivos e sem anúncios
    Cifra Club Pro
    Aproveite o Cifra Club com benefícios exclusivos e sem anúncios
    OK