Cifra Club

Aprenda

Whip It

Devo

Cifra: Principal (violão e guitarra)
tom: C
Tabbed by: DoubleAron
Email: *

Tuning: E-A-D-G-B-E

Intro
e|---------------------------------------------------|
B|---------------------------------------------------| ______
G|---------------------------------------------------|<      \
D|---------------------------------------------------|        \
A|----------------5--------------5-------------------|         \
E|(12\0)--0-0-5-7--------0-0-5-7---------------------|
Palm mute                                               Same time in order


other guitar -- some high pitched distortion
e|------------------3--------------------------------|          /
B|--------------------3-0----------------------------|         /
G|---------------------------------------------------|        /
D|---------------------------------------------------|
Composição de Jerry Casale / Mark Mothersbaugh
1.699 exibições
    • ½ Tom
    • A
    • Bb
    • B
    • C
    • Db
    • D
    • Eb
    • E
    • F
    • F#
    • G
    • Ab
  • Adicionar à lista

    0 comentários

    Ver todos os comentários

    Conseguiu tocar?

    0 Tocaram 1 Ainda não

    Grave um vídeo tocando Whip It e nos envie!

    00:00 / 00:00
    outros vídeos desta música
    repetir qualidade Automático
    Outros vídeos desta música
    00:00 / 00:00
    Automático

    Cifra Club Pro

    Aproveite o Cifra Club com benefícios exclusivos e sem anúncios
    Cifra Club Pro
    Aproveite o Cifra Club com benefícios exclusivos e sem anúncios
    OK