Cifra Club

Aos Olhos do Pai

Diante do Trono

Cifra: Principal
exibições 533.756
Tom: C# (com acordes na forma de C) Capotraste na 1ª casa
Intro: C A#9 G C

     C                    A#9          G       C
E|---------------------|-----1-----|-3-----|-0-|
B|-0-1-------1-0-1-----|-0-1---1---|---0---|---|
G|-------0-----------0-|---------3-|-----0-|---|
D|-----2-----------2---|-----------|-------|---|
A|-3---3-------3---3---|-----1-----|-2-----|-3-|
E|---------------------|-----------|-------|---|

Primeira parte:

     Dm/C      F         C         Dm
E|-------1-|-------1-|-------0-|-------1-|
B|-----3---|-----1---|-----1---|-----3---|
G|---2-----|---2-----|---0-----|---2-----|
D|---------|---------|---------|-0-------|
A|-3-------|---------|-3-------|---------|
E|---------|-1-------|---------|---------|

Primeira Parte:
              Dm/C       F              C                 Dm    Dm/C
Aos olhos do Pa____i  você é uma obra prima que Ele planejo______u
     F             C
Com suas próprias mãos pintou
   F                   C
A cor de sua pele, os seus cabelos desenhou
 Dm          F      C
Cada detalhe   num toque de amor

     Dm/C              F                 C                 Dm
E|-------1---------|-------1---------|-------0---------|-------1---------|
B|-----3---3-------|-----1---1-------|-----1---1-------|-----3---3-------|
G|---2-------2---2-|---2-------2---2-|---0-------0---0-|---2-------2---2-|
D|-----------------|-----------------|-----------------|-0-----------0---|
A|-3-----------3---|-----------------|-3-----------3---|-----------------|
E|-----------------|-1-----------1---|-----------------|-----------------|

              Dm/C      F              C                 Dm   Dm/C
Aos olhos do Pa____i você é uma obra prima que Ele planejo______u
     F             C
Com suas próprias mãos pinto____u
   F                   C
A cor de sua pele, os seus cabelos desenhou
 Dm          F      C
Cada detalhe   num toque de amor

Refrão:
        F       C                 F         G
Você é linda demais, perfeita aos olhos do Pai
    F     C       Dm     Dm/C A#  G
Alguém igual a você não vi jamais
          F       C                 F         G
Princesa linda demais, perfeita aos olhos do Pai
    F     C       Dm     Dm/C A#  G4
Alguém igual a você não vi jamais

Primeira Parte:

     Dm/C              F                 C                 Dm
E|-------1---------|-------1---------|-------0---------|-------1---------|
B|-----3---3-------|-----1---1-------|-----1---1-------|-----3---3-------|
G|---2-------2---2-|---2-------2---2-|---0-------0---0-|---2-------2---2-|
D|-----------------|-----------------|-----------------|-0-----------0---|
A|-3-----------3---|-----------------|-3-----------3---|-----------------|
E|-----------------|-1-----------1---|-----------------|-----------------|

              Dm  Dm/C  F              C                 Dm   Dm/C
Aos olhos do Pa____i você é uma obra prima que Ele planejo______u
     F             C
Com suas próprias mãos pinto____u
   F                   C
A cor de sua pele, os seus cabelos desenhou
 Dm          F      C
Cada detalhe   num toque de amor

( A#9  F/A )

Final:

       F/C            Am    G           F
Nunca deixe alguém dizer, que não é querida
       Am         F/C            G
Antes de você nascer,   Deus sonhou com você
       F/C            Am    G           F
Nunca deixe alguém dizer, que não é querida
       Am         F/C            G
Antes de você nascer,   Deus sonhou com você

Refrão final:
        F       C                 F         G
Você é linda demais, perfeita aos olhos do Pai
    F     C       Dm     Dm/C A#
Alguém igual a você não vi jamais

          G       D/F#              G         A
Princesa Linda demais, perfeita aos olhos do Pai
    G     D/F#    Em     D    C   A4
Alguém igual a você não vi jamais

        G       D/F#              G         A
Você é Linda demais, perfeita aos olhos do Pai
    G     D/F#    Em     Em/D C   A4
Alguém igual a você não vi jamais
       G  D/F#     A         D
Princesa,      aos olhos do Pa______i
Acordes para:

    0 comentários

      mostrar mais comentários

      Conseguiu tocar?

      15tocaram3ainda não

      Grave um vídeo tocando Aos Olhos do Pai e mande pra gente!

      00:00 / 00:00
      outros vídeos desta música
      repetirqualidadeautomática
      Outro vídeos desta música
        00:00 / 00:00
        automática
        OK