Cifra Club

Digno É o Cordeiro

Diante do Trono

Cifra: Principal
exibições 70.509
Tom: C

 Intro: C9  F  A7sus4  G  C9  F  A7sus4  G  G/F
E|---8--8--8--8--8--8--8--8--8--8--8--8---8-----|
B|----------------------------------------------|
G|---5--5--5--5--5--5--5--5--5--5--5--5---------|
D|----------------------------------------------|
A|----------------------------------------------|
E|----------------------------------------------|


E|---------3---1---------3---1--------3---1-----|
B|------3--------------3-------------3----------|
G|-5--5-------------5--------------5------------|
D|----------------------------------------------|
A|----------------------------------------------|
E|----------------------------------------------|


E|--1---6------8--------------------------------|
B|-----------6----------------------------------|
G|----------------------------------------------|
D|----------------------------------------------|
A|----------------------------------------------|
E|----------------------------------------------|


Solo:
   C9
De todas as nações
     Am7
Teus filhos se unirão
        F      F7M 1°vez    F/A   F9/A  F/A  2°vez
Para adorar a Ti

F                G
Todos os povos e raças
F/A               G    G7M
Todas as tribos e línguas
Dm7               G                  Am7
Diante do Trono fazendo uma festa ao Rei

F/A              G   G4   G/F
Fazemos festa ao Rei

Refrão:
C             F     G
Digno é o Cordeiro
Am7          F     G  G4  G
Digno é o Cordeiro
     Dm7         C
Foi morto mas venceu
       F      Am7         G    G9   G
E a muitos recebeu como herança

Reintro:  C9  F  C  F  A7sus4  G  G/F  F7M  G  G4  A7sus4  G  G/F

Digno é o Cordeiro

E|----8--------------------------------------------------|
B|-------5---6-------------------------------------------|
G|-------------------------------------------------------|
D|-------------------------------------------------------|
A|-------------------------------------------------------|
E|-------------------------------------------------------|  (4x)


Refrão:
C  C/G          F
Digno é o Cordeiro ..
Am7 Am7/G   F    G
Digno é o Cordeiro ..
C  C/G          F    G/F
Digno é o Cordeiro ..
Am7 Am7/G  F     G
Digno é o Cordeiro ..
   Dm7            C
Foi morto mas venceu
       F      Am7         G    G9   G
E a muitos recebeu como herança

Final:  C9  C  G9  G  C9  F  C  F9  G/F  C9  F  Am7 F9  G/F  G  F  G  C
Acordes para:
    Composição: Ana Paula Valadão BessaColaboração e revisão:
    • da Soares
    • Eduardo Souza

    0 comentários

      mostrar mais comentários

      Conseguiu tocar?

      4tocaram0ainda não

      Grave um vídeo tocando Digno É o Cordeiro e mande pra gente!

      00:00 / 00:00
      outros vídeos desta música
      repetirqualidadeautomática
      Outro vídeos desta música
        00:00 / 00:00
        automática
        OK