Cifra Club

Aprenda

Em Teus Átrios

Diante do Trono

Cifra: Principal (violão e guitarra)
Já pensou em usar uma coleção de roupas do Cifra Club? Responda as perguntas abaixo e nos ajude nessa missão! →
tom: G
[Intro] Em  C  D  Em  C  D  Em 

[Solo] 

E|----------------------------------------10--8--7-----------------------------|
B|--------------------------------------------------10--8--7h8p7---------------|
G|---------------------------------7--9---------------------------9--8--8h9v---|
D|-----------------------7--9--10----------------------------------------------|
A|-----------7--9--10----------------------------------------------------------|
E|--0--7h10--------------------------------------------------------------------|

E|---------------------------------------15--14--------------------------------|
B|--8--7----------8--7---------------------------17--15--15b-------------------|
G|--------7--7h9--------7----------------------------------------14b-14--------|
D|-------------------------9--7h9p7--5-----------------------------------12v---|
A|-----------------------------------------------------------------------------|
E|-----------------------------------------------------------------------------|

E|-------------------------------------10--8--7--------------------------------|
B|-----------------------------------------------10--8--7h8p7------------------|
G|-------------------------------7--9--------------------------9--8------------|
D|---------------------7--9--10------------------------------------------------|
A|-----------7--9--10----------------------------------------------------------|
E|--5/7--10--------------------------------------------------------------------|

E|--8--7-----------------------------------------------------------------------|
B|--------10--8--7h8p7-----------------------------------------12--13----------|
G|----------------------8------------------------------12--14----------12--14--|
D|---------------------------------13--14--16--14--16--------------------------|
A|--------------------------14/15----------------------------------------------|
E|-----------------------------------------------------------------------------|

E|---------11--12--|
B|--12--13---------|
G|-----------------|
D|-----------------|
A|-----------------|
E|-----------------|


[Solo 2]

E|--------------------------------------------------|
B|-----8--7--------8--7---------12--10------12--10--|
G|--7--------7--9--------7--------------12----------|
D|--------------------------9-----------------------|
A|--------------------------------------------------|
E|--------------------------------------------------|


Em      Em    Em        Em    Em     C  D
Em teus átrios eu encontro vida
Em     Em         Em    Em     Em    D/F#    G
A fome da minha alma posso saciar
Am
Leva-me as fontes de águas vivas
 C            Am       Bm7    Em
Mostra-me o caminho ao teu altar. 2X

            C    D
Eu quero viver uôo
Am
Junto aos teus Rios
        C      D              Em
Permanecer em tua presença Senhor
             C    D
Eu quero dançar uôo
     Em    D    C
Celebrar a liberdade
       Am       Bm7          Em
E oferecer sacrifícios de louvor
Bateria::    Intr: Em : C : D

Em      Em    Em        Em    Em     C  D
Em teus átrios eu encontro vida
Em     Em         Em    Em     Em    D/F#    G
A fome da minha alma posso saciar
Am
Leva-me as fontes de águas vivas
 C            Am       Bm7    Em
Mostra-me o caminho ao teu altar
             C   D
Eu quero viver uôo
Am
Junto aos teus Rios
        C      D              Em
Permanecer em tua presença Senhor
             C    D
Eu quero dançar uôo
     Em    D    C
Celebrar a liberdade
       Am       Bm7          Em
E oferecer sacrifícios de louvor

    C                  Am            Em
Em tua presença há abundância de alegria
    C                Am         Bm7       Em
Buscar tua face me traz um novo fôlego de vida. 2X

Eu quero viver uôo
Am
Junto aos teus Rios
        C      D              Em
Permanecer em tua presença Senhor
             C    D
Eu quero dançar uôo
     Em    D    C
Celebrar a liberdade
       Am       Bm7          Em
E oferecer sacrifícios de louvor. 2X

    C                  Am            Em
Em tua presença há abundância de alegria
    C                Am         Bm7       Em
Buscar tua face me traz um novo fôlego de vida
    C                Am         Bm7       Em
Buscar tua face me traz um novo fôlego de vida
Composição de Ana Paula Valadão
Colaboração e revisão:
  • cassio eletricista
  • AndréGeyza Cardoso
  • Filipe Pereira
78.723 exibições
    • ½ Tom
    • A
    • Bb
    • B
    • C
    • Db
    • D
    • Eb
    • E
    • F
    • F#
    • G
    • Ab
  • Adicionar à lista

    0 comentários

    Ver todos os comentários
    00:00 / 00:00
    Outros vídeos desta música
    Repetir Qualidade Automático
    Outros vídeos desta música
    00:00 / 00:00
    Automático

    Cifra Club Pro

    Aproveite o Cifra Club com benefícios exclusivos e sem anúncios
    Cifra Club Pro
    Aproveite o Cifra Club com benefícios exclusivos e sem anúncios
    OK