Cifra Club

Escudo e Proteção

Diante do Trono

Cifra: Principal
exibições 128.181
Tom: C
Diante do Trono - Escudo e Proteção

Intro: C  Am  G   F



E|------------------------5----------------------------------------------------|
B|------8-5~----------------5~----------------8-5~-----------------5-----------|
G|---5----------7-5-----5----------7-5-----5----------7-5--------------5~------|
D|-7-----------------7------------------7------------------7---5h7-------------|   (2x)
A|-----------------------------------------------------------------------------|
E|-----------------------------------------------------------------------------|


I
C         G6/B                 Am7
_Achei o amor que não me deixa só
        Gsus4             C
 Achei a alegria que é maior
C         G6/B                 Am7
_Achei descanso para o meu coração
        Gsus4           C    F
 Achei alivio e libertação.
---------------------------------
REFRÃO
C                Am7             Gsus4
Escudo e proteção acima da razão
                    F
Em Ti eu posso confiar.
---------------------------------
II
C        G6/B           Am7
_És liberdade pra recomeçar.
       Gsus4
És esperança pra continuar.
C        G6/B                 Am7
_És meu abrigo quando a chuva vem.
         Gsus4              F
Eu deixo tudo e corro para Ti.
---------------------------------
REFRÃO
C                  Am7              Gsus4
_ Escudo e proteção _ acima da razão
                      F
  Em Ti eu posso confiar.
C                       Am7
_ Tua força me faz crer
                           Gsus4
  Além do que eu posso ver.
                      F
  Em Ti eu posso confiar.
-----------------------------------
Intervalo: ( C  Am7  Gsus4  F ) 2x
-----------------------------------
  C           Am7
  _ Eu confio, _ eu confio em Ti.
Gsus4          F
  _ Eu confio, _ eu confio em Ti.
  C           Am7
  _ Eu confio, _ eu confio em Ti.
Gsus4          F
  _ Eu confio, _ eu confio em Ti.
---------------------------------
REFRÃO
C                  Am7              Gsus4
_ Escudo e proteção _ acima da razão
                      F
  Em Ti eu posso confiar.
C                       Am7
_ Tua força me faz crer
                           Gsus4
  Além do que eu posso ver.
                      F
  Em Ti eu posso confiar.
-----------------------------------
  C           Am7
  _ Eu confio, _ eu confio em Ti.
Gsus4          F
  _ Eu confio, _ eu confio em Ti.
  C           Am7
  _ Eu confio, _ eu confio em Ti.
Gsus4          F
  _ Eu confio, _ eu confio em Ti.
-----------------------------------
( C  Am7  Gsus4  F ) 2x
Acordes para:

    0 comentários

      mostrar mais comentários

      Conseguiu tocar?

      10tocaram0ainda não

      Grave um vídeo tocando Escudo e Proteção e mande pra gente!

      00:00 / 00:00
      outros vídeos desta música
      repetirqualidadeautomática
      Outro vídeos desta música
        00:00 / 00:00
        automática
        OK