Cifra Club

Manancial

Diante do Trono

Cifra: Principal
exibições 291.975
Tom: C
Intro 4x: Em  G  C9

E|----6-----3--1----------------------------|
B|------3--------3--------------------------|
G|-3------3---------------------------------| (4x)
D|------------------------------------------|
A|------------------------------------------|
E|------------------------------------------|

Primeira Parte:
Em7             G                C9
  Senhor, estou aqui para te adorar
    Em7    G       C9
Em tua presença desejo estar
    Em7     G    C9
Eu sei que nada sou
                 Em7
Mas vim me humilhar
            G         C9
Preciso de ti Vem me restaurar 
      
Refrao: 
G
Eu quero ser
     D9            Am7
Como um jardim fechado
   C9        Em
Regado e cuidado
      D9/F#     Am7
Pelo teu Espírito
         C9
Flua em mim
         G     D9
Como um manancial
 Am7         C9
Do meu interior
 Em        D9/F#  Am7
Com águas vi  -  vas
                C9
Restaura o meu ser Para o teu louvor

SOLO 4x: Em  G  C9

E|-18-18-18-18-18-18-18-18-15-15-15-15-15-15-15-15-----------------------------------------------------------------------|
B|-------------------------------------------------18-18-18-18-18-18-18-18-15-15-15-15-15-15-15-15-16--------------------|
G|-----------------------------------------------------------------------------------------------------------------------| (4X)
D|-----------------------------------------------------------------------------------------------------------------------|
A|-----------------------------------------------------------------------------------------------------------------------|
E|-----------------------------------------------------------------------------------------------------------------------|

Refrão 2x:
         C
Eu te farei 
            C/E    F7M
Como um jardim fechado 
   C/E       Dm7
Regado e cuidado 
      Am        G
Pelo meu Espírito 
Em7     F7M
Eu fluirei 
           G   Am
Como um manancial 
             Dm7
Do teu interior 
           Em7  F
Com águas vi - vas 
            Gsus    G
Te restaurarei 
 F/G           C
Para o meu louvor

FINAL: Em  G  C9

E|----6-----3--1----------------------------|
B|------3--------3--------------------------|
G|-3------3---------------------------------| (4x)
D|------------------------------------------|
A|------------------------------------------|
E|------------------------------------------|
Acordes para:

    0 comentários

      mostrar mais comentários

      Conseguiu tocar?

      12tocaram1ainda não

      Grave um vídeo tocando Manancial e mande pra gente!

      00:00 / 00:00
      outros vídeos desta música
      repetirqualidadeautomática
      Outro vídeos desta música
        00:00 / 00:00
        automática
        OK