Notificações Amigos pendentes

      Diante do Trono

      Nos Braços do Pai

      320.755 exibições
      Tom: F
      Intro:  Bb  F/A  Gm7(11)   F/A  Bb  F/A  Gm7(11)
      
       Bb   F/A   Gm7(11)  F/A
      Pai, Estou aqui,
       Bb   F/A   Gm7(11)
      Olha para mim
         F9  Eb9      Bb/D    F4   F
      Desesperado por mais de Ti
        Bb/D     Eb              Bb9
      A tua presença é o meu sustento
        Bb/D   Eb9        F     Gm7
      A Tua   palavra meu ali - mento
                Cm7
      Preciso ouvir
        Bb9/D Eb          Eb9/G   F9/A
      A tua   Voz dizendo assim:
      
      Bb9       Eb/Bb    Bb9
      Vem filho ama -  do
      F9        Bb/F F  Eb9        F/Eb   Eb  F
      Vem em meus braços descansar
      Bb9      Eb/Bb Bb   F                Eb9
       E bem segu -  ro te conduzirei    ao Meu altar
      Bb9/D       Cm7     Gm7   F9/A
        Ali   falarei  contigo
               Gm7      F9   Eb9
      Com meu amor te envolverei
           Bb9/D      Cm7        Bb9/D      F9
      Quero  o   -   lhar em teus olhos
      
             Gm7   F/A          Eb9    Bb9/D    Gm7    F/A  (volta no refrão)     Eb9
      Tuas feridas sara    -    Rei
      
      Bb9       Eb/Bb    Bb9
      Vem filho ama  -  do
       F         Eb9       F/Eb        Eb   (Gm7   F/A   Eb9 - repete tudo) (3) F/Eb  Eb F
      Vem como estás (2x)
      
      
      Bb9   F9/A       Gm7(11)   F/A
      Pai,        meu  Pai
      Bb9/D    Eb9   Eb/F    F            Bb9    (Eb9/Bb   F/Bb)
       Meu   Papai,          A  -  ba    Pai (4x)
      
      Instrumental:  C#/B  B  C#/B  B  B/C#  C#  B/C#   C#
                     Dm7 C/E F/Bb F Dm7 C/E F G
      
      C9   G9/B       Am7(11)   G/B
      Pai,        meu  Pai
      
      C9/E    F9    F/G    G    F/G    C9    (F9/C   G/C)
       Meu   Papai,        A  -  ba   Pai
      
      
      (última vez)
      C9   G9/B       Am7(11)   G/B
      Pai,        meu  Pai
      C9/E    F9   F/G
       Meu Papai
           F9/G   C9   C
      A|-  ba Pai
      
      Solo:
      
      
      E|---------------------------------------------------------------|
      B|---------------------------------------------------------------|
      G|---12-14-15~~~~---14~~~~~~--12~~~~~~--(12)\--------------------|
      D|---------------------------------------------------------------|
      A|---------------------------------------------------------------|
      E|---------------------------------------------------------------|
      
      
         Bb       Eb/Bb        Bb                         Eb/Bb
      |---------|-------------|-----------------------------|------------|
      |---------|-------------|---------------11-10---------|------------|
      |-5~~-5-7-|8~~~~-8/12~~~|~p(10)~~~~--10-------10----10|/12-(12)p10-|
      |---------|-------------|------------------------12---|------------|
      |---------|-------------|-----------------------------|------------|
      |---------|-------------|-----------------------------|------------|
      
      
                        Dm                                     Em
      E|-------------|--------------------------------------|----------------|
      B|-------------|--------------------------11p10p8-----|----10h11-13\---|
      G|------------9|-10~~--9h10-7~~~----9h10---------10-10|/12-------------|
      D|-----9-10-12-|--------------------------------------|----------------|
      A|--12---------|--------------------------------------|----------------|
      E|-------------|--------------------------------------|----------------|
      
      
          Am7        Bb Am7  Dm7 Em7 F                                G
      E|-----------------|----------------------------------------------|
      B|-11~~11-10-------|------------------12-13-15----------12-13-15--|
      G|-----------10----|-7----9--10-10-12-14-------10-12-14-----------|
      D|-----------------|----------------------------------------------|
      A|-----------------|----------------------------------------------|
      E|-----------------|----------------------------------------------|
      
      
      E|-12-13-15------------------------------------------------------|
      B|---------------------------------------------------------------|
      G|---------------------------------------------------------------|
      D|---------------------------------------------------------------|
      A|---------------------------------------------------------------|
      E|---------------------------------------------------------------|
      
        Composição: Ana Paula Valadão BessaColaboração e revisão:
        • Juliana
        • ricmaral
        • Chacal(MATRIZ)
        • dukamenezes
        • +2

        Comentários 1

        140 .
        140 cancelar

        conseguiu tocar?

        covers

        Grave um vídeo tocando Nos Braços do Pai e mande pra gente!

        Ex.: http://www.youtube.com/watch?v=0IvSvIwGdwk
        ver covers de outras músicas »
        0:00 / 0:00

        Capítulos

          1 versão de partiturasformatodownloadscontribuição
          play/pausefechar subir/descer velocidade
          6ª corda E5ª corda A4ª corda D3ª corda G2ª corda B1ª corda E
            acordes
            publicidade
            fechar
            ok